Oops, an error
Loading. Please wait.

Party Of Special Things To Do Tab

version 2
version 2

Whole song

Interactive

6,301 views 12 this week
no commentswrite comment
1 2 3 4 5
excellent!
x 5
add to favorites
launch autoscroll
font size
0
reset
how to read this tab
guitar tuner
Tab Pro tools
  • play this tab
  • loop segment
  • change instrument
  • show fretboard
  • metronome
Autoscroll
slow
fast
+/-
esc
set tempo
stop
Contributor
---------------------------------------------------------------------------
Party Of Special Things To Do
---------------------------------------------------------------------------

Tabbed by: Equivalence
Email: jorcestmoi@hotmail.com

Tuning: Standard

Possibly a half step down but then you can still use this tab to figure it out, this is 
I play it ;)

Jack plays this song with heavy fuzz from the Big Muff, so he doesn’t play any power 
but if you haven’t got a muff just use the notes below as root notes for the chords.

Main riff
e|-----------------------------------|
B|-----------------------------------|
G|-----------------------------------|
D|----------------------------2------| 9x
A|-2--4----2--4----2--4----------4~--|
E|-------------------------0h2-------|

On the tenth time, play this:
e|-----------------------------------|
B|-----------------------------------|
G|-----------------------------------|
D|----------------------------2------|
A|-2--4----2--4----2--4----------4---|
E|-------------------------0h2------0|

Break (clean)
e|----1--------1------|
B|--2---2----0---0----|
G|--------------------|
D|--------------------| 8x, then fade out
A|-4-------2----------|
E|--------------------|

That’s about everything I guess, just listen to the song to find the order after the 
break. Cheers :]


| /  slide up
| \  slide down
| h  hammer-on
| p  pull-off
| ~  vibrato
| +  harmonic
| x  Mute note
===========================================================================
comments
print report bad tab
I want to post or [tab]
guest
You may want to rate the tab now too:
select rating
Please do not post tabs as comments. Select "correction" instead!