Oops, an error
Loading. Please wait.

Prickly Thorn But Sweetly Worn Tab

version 1
version 1

Whole song

Interactive

7,676 views 6 this week
3 commentsread comments
1 2 3 4 5
accurate
x 8
add to favorites
launch autoscroll
font size
0
reset
how to read this tab
guitar tuner
Tab Pro tools
  • play this tab
  • loop segment
  • change instrument
  • show fretboard
  • metronome
×
Best way to learn
"Prickly Thorn But Sweetly Worn"
Autoscroll
slow
fast
+/-
esc
set tempo
stop
Contributor
-------------------------------------------------------------------------------
                PRICKLY THORN BUT SWEETLY WORN – The White Stripes
-------------------------------------------------------------------------------
Tabbed by: leaffanck12
Email: Christopher_kowlessar@hotmail.com

Tuning: Standard

for the intro its only the first line, but starting at the bagpipes riff its the first 
and then the second line repeated throughout the song :)

Main riff

e|---------2--22--2--2--3--3--2--2----1--11--1--1--0--1--0------------|
B|---------3--33--3--3--3--3--3--3----1--11--1--1--1--1--1--3---------|
G|--------------------------------------------------------------------|
D|--------------------------------------------------------------------|
A|--------------------------------------------------------------------|
E|--------------------------------------------------------------------|

e|------------------------------------2--22--2--2--3--3--2--2---------|
B|---------1--11--1--1--1--1--1--1----3--33--3--3--3--3--3--3---------|
G|---------0--00--0--0--0--0--0--0------------------------------------|
D|--------------------------------------------------------------------|
A|--------------------------------------------------------------------|
E|--------------------------------------------------------------------|


Bagpipe (at chorus)

e|----------------------------------------------------------------------|
B|----------------------------------------------------------------------|
G|----------------0-----------------------------------------------------|
D|--------4----4-----4--2----4----0------0-----------2-----0------------|
A|---------------------------------------------3------------------------|
E|----------------------------------------------------------------------|

Bagpipes solo

e|--------------------------------------------------------------------|
B|--------------------------------------------------------------------|
G|--------------------------------------------------------------------|
D|--------2-----4---4---4---4---7---0---12—10--9--5--7-------2--------|
A|-----5--------------------------------------------------5-----------|
E|--------------------------------------------------------------------|


e|--------------------------------------------------------------------|
B|--------------------------------------------------------------------|
G|--------------------------------------------------------------------|
D|------4--4--5--4--2--4--0-----0------0--2--0------0-------2---------|
A|---------------------------------3------------3--------5------------|
E|--------------------------------------------------------------------|

e|--------------------------------------------------------------------|
B|--------------------------------------------------------------------|
G|--------------------------------------------------------------------|
D|---4----4--0--7--5--4--2--4----0-----12----10--9--7—5--10--9—7--5--7|
A|--------------------------------------------------------------------|
E|--------------------------------------------------------------------|
comments
print report bad tab
3 comments total.
-1 reply
Addis Ababa wrote on August 26 2007, 03:03 pm

too bad this is played with a mandolin

0 reply
C-C Beatroot wrote on June 9 2008, 07:20 pm

It would be really cool if you could submit mandolin tabs
What I play on mandolin for this sounds sorta right, but I don''t think it is

0 reply
trineK91 wrote on July 18 2008, 04:22 pm

if you put a capo on the twelfth fret it sounds a lot like a mandolin, its just sort of hard to play because everything is so close together

I want to post or [tab]
guest
You may want to rate the tab now too:
select rating
Please do not post tabs as comments. Select "correction" instead!