Oops, an error
Loading. Please wait.
We have an official Same Boy Youve Always Known tab made by UG professional guitarists. Check out the tab »
×
8,436 views 3 this week
5 commentsread comments
1 2 3 4 5
x 11
add to favorites
launch autoscroll
font size
0
reset
how to read this tab
guitar tuner
Autoscroll
slow
fast
+/-
esc
set tempo
stop
-------------------------------------------------------------------------------
                Same Boy You've Always Known - The White Stripes
-------------------------------------------------------------------------------

By:  AM

INTRO (2x)
e|------------------------0--------------------------------------------------|
B|------------------------3--------------------------------------------------|
G|------------------------2--------------------------------------------------|
D|-----5/7--7-----0h2--0-----------------------------------------------------|
A|-------------0-------------------------------------------------------------|
E|---------------------------------------------------------------------------|


VERSE
A
you fell down of course and then you 
D                            A      D
got up of course and started over
          A                D
forgot my name of course
                   A          D
then you started to remember


CHORUS
C                          G                    A       G A
pretty tough to think about the beggining of december
C                           G                        
pretty tough to think about     
                       A           D
pretty tough to think about  yeah yeah pretty tough to think about

A
you're looking down again and then you look me over
D                                             A      D
we're laying down again on a blanket in the clover

the same boy you've always known well I guess I haven't grown
                                                            A     
the say boy you've always known the say boy you've always known


BRIDGE
G5
think of what the past did it could've lasted
                   A
so put it in your basket
G5
i hope you know a strong man who can lend you a hand
E
lowering my casket

(The solo i wasn't sure about.  I can catch that it has 5/7 7 in it from the
intro, and a few hammer-on-pull-offs.  Just listen and try and figure it out)

A
i thought this is just today and soon you'll be returning
D
the coldest blue ocean water cannot stop my heard and mind from burning
                                                        A    D
everyone who's in the know says that's exactly how it goes
 D                                                            E
and if there's anything good about me i'm the only one who knows
Suggest correction
comments
print report bad tab
5 comments total. Showing first comments.
0 reply
CoolBeans 10 Aug 08, 2004 08:00 PM

Just like Samuel777 the notes all sound correct but I think it would be easier (and it even sounds a little better) with the 2h4 4p2p0 2.

0 reply
SamTheRunninMan 10 Jan 17, 2006 03:39 PM

I like everything, but at least on my guitar the intro sounds better when done this way:

-------------------
-------------------
-------------------
-------------------
-7/9--7------0h2--0
--------0----------

0 reply
Jaykib 20 Feb 26, 2006 10:45 PM

This is alright and all but why "the SAY boy you've always known" ...?

guest
Wanna post a correction for this tab? Suggest correction