Oops, an error
Loading. Please wait.

Seven Nation Army Tab

149,291 views 453 this week
6 commentsread comments
1 2 3 4 5
accurate
x 24
add to favorites
launch autoscroll
font size
0
reset
how to read this tab
guitar tuner
Tab Pro tools
  • play this tab
  • loop segment
  • change instrument
  • show fretboard
  • metronome
×
Best way to learn
"Seven Nation Army"
Autoscroll
slow
fast
+/-
esc
set tempo
stop
Contributor
E|---------------------------------------------------------------|
B|---------------------------------------------------------------|
G|---------------------------------------------------------------|    
D|-14--14--16b--16--14--16b--14--14--17—19--17--17--19—17--16----|X2    
A|---------------------------------------------------------------|
E|---------------------------------------------------------------|

E|-12--12--14b--12--12--14b--14--12--12--15--17--15--15--17--15--14-|
B|------------------------------------------------------------------|
G|------------------------------------------------------------------|    
D|------------------------------------------------------------------| 1X   
A|------------------------------------------------------------------|
E|------------------------------------------------------------------|

E|--12--12--15--12--12--15b--14--12--12--15--12--12--15--15---------------|
B|-----------------------------------------------------------15--14--12---|
G|------------------------------------------------------------------------|    
D|------------------------------------------------------------------------|1X   
A|------------------------------------------------------------------------|
E|------------------------------------------------------------------------|

b= bend
comments
print report bad tab
6 comments total. Showing first comments.
0 reply
FooFighterFreak wrote on March 2 2013, 01:34 am

i yite potatoes

0 reply
guitarraloka24 wrote on June 6 2013, 05:54 pm

great job but try this :
int the 4 string
7-7-10-7-5-3-2
7-7-10-7-5-3-5-3-2
i think that this is good

0 reply
peterzzzz wrote on August 28 2014, 05:42 pm

This is good
This is easier :
On the second string :
5-5/8-5-8-7
5-5/8-5-8/10-8-7
X2
On the first string :
12-12/15-12-15-14
12-12/15-12-15/18-15-14
X2
THATS THE SOLO THE EASY WAY

I want to post or [tab]
guest
You may want to rate the tab now too:
select rating
Please do not post tabs as comments. Select "correction" instead!