Oops, an error
Loading. Please wait.

Seven Nation Army Tab

version 11
version 11

Video

4,335,517 views 9,204 this week
212 commentsread comments
1 2 3 4 5
x 691
add to favorites
launch autoscroll
font size
0
reset
how to read this tab
guitar tuner
backing track
0:00
0:00
×
Best way to learn
"Seven Nation Army"
Autoscroll
slow
fast
+/-
esc
set tempo
stop
Author
tune guitar to open A tuning (low to high: E A E A C# E)

[Verse]
e |-------------------------------------------|
C#|-------------------------------------------|
A |-------------------------------------------|
E |-------------------------------------------|
A |---7----7----10----7----5----3----2--------| x8
E |-------------------------------------------|

[Pre-chorus]
e |---------------------------------------------|
C#|-----------------------0-0-0-0--0-0-0-0------|
A |------------------------0-0-0-0--0-0-0-0-----|
E |-0-0--------------------0-0-0-0--0-0-0-0-----|
A |-0-0--5-5-5-5--5-5-5-5--0-0-0-0--0-0-0-0-----|
E |-0-0--3-3-3-3--3-3-3-3--0-0-0-0--0-0-0-0-----|

[Chours]
e |----------------------------------------|
C#|---7--7--/--10--7--5--3--2--------------|
A |----7--7--/--10--7--5--3--2-------------|
E |----7--7--/--10--7--5--3--2-------------|
A |----7--7--/--10--7--5--3--2-------------|
E |----------------------------------------|

e |-------------------------------=-------------|
C#|--7-7--/--10--7--5--3--/-5-/-3--2--0---------|
A |---7-7--/--10--7--5--3--/-5-/-3--2--0--------|
E |---7-7--/--10--7--5--3--/-5-/-3--2--0--------|
A |---7-7--/--10--7--5--3--/-5-/-3--2--0--------|
E |---------------------------------------------|

[Riff 2](after chours)
e |---------------------------------------------|
C#|-----------------------0-0-0-0--0-0-0-0------|
A |------------------------0-0-0-0--0-0-0-0-----|
E |------------------------0-0-0-0--0-0-0-0-----|
A |------5-5-5-5--5-5-5-5--0-0-0-0--0-0-0-0-----|
E |------3-3-3-3--3-3-3-3--0-0-0-0--0-0-0-0-----|

[Solo]
e |------------------------------------------------------|
C#|------------------------------------------------------|
A |---------------10--9--9/0------------10--12--10-------|
E |--12-12-12-12--------------------12-------------------|
A |-----------------------------12-----------------------|
E |-----------------------------12-----------------------|

e |------------------------------------------------------------|
C#|------------------------------------------------------------|
A |---10/12--10--9--0-----------------10------10/9--9----------|
E |--------------------/12-12-12--12------12-------------------|
A |--------------------/12-12-12-------------------------------|
E |------------------------------------------------------------|

e |------------------------------------------12--12--12--15--12--12----|
C#|--------------------------------------------------------------------|
A |-----------10--12--10--10--12--10--9--0-----------------------------|
E |--/12--12-----------------------------------------------------------|
A |--/12--12-----------------------------------------------------------|
E |--/12---------------------------------------------------------------|

e |---14--/12--12/15--17--15--15/17--15--14--0---|
C#|----------------------------------------------|
A |----------------------------------------------|
E |----------------------------------------------|
A |----------------------------------------------|
E |----------------------------------------------|

e |---12--12--12/14--12--12--17--14--12--12--12/14-12--12---|
C#|---------------------------------------------------------|
A |---------------------------------------------------------|
E |---------------------------------------------------------|
A |---------------------------------------------------------|
E |---------------------------------------------------------|

e |---14--12-------------------------------------------------|
C#|----------11--10----/10----/12----12\---------------------|
A |-------------------0-/10-8x-/12-6x-12\--------------------|
E |---------------------/10----/12----12\--------------------|
A |----------------------------/12----12\--------------------|
E |-----------------------------------12\--------------------|

**********************************

| /   Slide up
| \   Slide down

**********************************
Suggest correction
comments
print report bad tab
212 comments total. Showing first comments.
+24 reply
blindfold7 15 Aug 10, 2003 08:00 PM

i'm pretty sure you didnt do all this by ear,
cuz i know where you can get the 100% version
and i pretty much matched 'em and you are dead on
except the real tab uses all the strings, you only
used about 4 (these are for the main riff part,you know
7~ 7-10-7-5-3~ 2 )
but who cares, it still rocks! if you did do it by ear,
holy sh!t! you are the greatest :cheers:

+12 reply
stryker 10 Sep 03, 2003 08:00 PM

dead on. sounds great. overall an easy song to play, just annoying to tune, keep it up

+3 reply
x_->Phil<-_x03 10 Oct 03, 2003 08:00 PM

actually, i have the actual song tab from GW. I ditto with stryker. Its exact. Keep on rocking!

guest
You may want to rate the tab now too:
select rating
Wanna post a correction for this tab? Suggest correction