Oops, an error
Loading. Please wait.
We have an official Seven Nation Army tab made by UG professional guitarists. Check out the tab »
×

Seven Nation Army Acoustic tab

version 13
version 13

Whole song

Video

571 views 21 this week
no commentswrite comment
1 2 3 4 5
3 more votes to show rating
add to favorites
×
Save as Personal and add changes to this tab that will be seen only by you. Learn more ›
×
You can save this tab as Personal to edit and correct it or add notes. All changes will be seen only by you. Learn more »
launch autoscroll
font size
0
reset
how to read this tab
guitar tuner
backing track
0:00
0:00
edit
Autoscroll
slow
fast
+/-
esc
set tempo
stop
About this tab version
Acoustic version that tries to preserve main riff, while adding chords (for beat effect) on top. Was this info helpful? Yes No
Getting the rythme right is the trickiest part, and can be improvised to preserve the main riff in the
original song. However, I've tried to do the best I could to make the spacing between the notes easy to
read how far a part each note is. The chords in the main riff are suppose to be played in place of
drums/snare. Finger picking sounds good too.

One last thing, on the main riff, the pinky finger and pointer finger are the only ones jumping around to
reach the other notes. But feel free to slip in open G string, open High, or Low E notes anywhere to
add variation. Just watch Sean Daniel's youtube video on "How to Play a Super Chill Seven Nation Army Jam"


[Main Riff & Chorus]
E|------0-----------0-----------0---------0-----|
B|------8-----------8-----------8---------8-----|
G|------9-----------0-----------9---------9-----|
D|------9-----------9-----------9---------9-----|
A|-7----7-7---10--7-7-----------7---------7-----|
E|------0-----------0--10--8----8----7----------|

[Pre-Chorus & Post-Chorus]
E|-3-3-3-3-3-3-3-3-|-5-5-5-5-5-5-5-5-|
B|-3-3-3-3-3-3-3-3-|-5-5-5-5-5-5-5-5-|
G|-4-4-4-4-4-4-4-4-|-6-6-6-6-6-6-6-6-|
D|-5-5-5-5-5-5-5-5-|-7-7-7-7-7-7-7-7-|
A|-5-5-5-5-5-5-5-5-|-7-7-7-7-7-7-7-7-|
E|-3-3-3-3-3-3-3-3-|-5-5-5-5-5-5-5-5-|

(Alternative way to play, adding variation)
E|-0-0-0-0-0-0-0-0-|-0-0-0-0-0-0-0-0-|
B|-0-0-0-0-0-0-0-0-|-0-0-0-0-0-0-0-0-|
G|-4-4-4-4-4-4-4-4-|-6-6-6-6-6-6-6-6-|
D|-5-5-5-5-5-5-5-5-|-7-7-7-7-7-7-7-7-|
A|-5-5-5-5-5-5-5-5-|-7-7-7-7-7-7-7-7-|
E|-3-3-3-3-3-3-3-3-|-5-5-5-5-5-5-5-5-|

[Ending]
E|------------------------------------------|
B|----------------------------------------7-|
G|-9-------9----12-9----7-5-------4-------7-|
D|-9-------9----12-9----7-5-------4-------5-|
A|-7-------7----10-7----5-3-------2-------7-|
E|----------------------------------------0-|

            
            
Suggest correction
Creating personal tab
Creating personal tab
You can edit any tab online and save it as your Personal.

You can edit, replace or remove any tab part or add personal notes – all changes will be seen only by you.

Personal tabs can be accessed anytime from any device, even offline.
Learn more »
Give kudos to tab author, rate the tab!
1 2 3 4 5
comments
print report bad tab
guest
You may want to rate the tab now too:
select rating
Wanna post a correction for this tab? Suggest correction