Oops, an error
Loading. Please wait.
We have an official Seven Nation Army tab made by UG professional guitarists. Check out the tab »
×

Seven Nation Army Tab

version 2
version 2

Whole song

Video

26,782 views 144 this week
8 commentsread comments
1 2 3 4 5
x 14
add to favorites
×
Save as Personal and add changes to this tab that will be seen only by you. Learn more ›
×
You can save this tab as Personal to edit and correct it or add notes. All changes will be seen only by you. Learn more »
save as personal
new!
launch autoscroll
font size
0
reset
how to read this tab
guitar tuner
backing track
0:00
0:00
Autoscroll
slow
fast
+/-
esc
set tempo
stop
Tuning
E A D G B E
SEVEN NATION ARMY
By: The White Stripes                              

Tabbed by:Jared Klienstien
Email:jarbear9@yahoo.com
Tuning:E A D G B E (standard)

[Intro/Verse]
e|---------------------------------------------------------------------------|
B|---------------------------------------------------------------------------|
G|---------------------------------------------------------------------------|
D|-----------------------------------repeat through verse--------------------|
A|-7-7-10-7---------7-7-10-7-------------------------------------------------|
E|----------10-8-7-----------10-8-10-8-7-------------------------------------|

[Pre-chorus]
e|-------------------------------------------------------------|
B|-------------------------------------------------------------|
G|-------------------------------------------------------------|
D|---5---7-----------------------------------------------------|
A|---5---7-----------------------------------------------------|
E|---3---5-----------------------------------------------------|

[Chorus] (strum) E E G E D C B /\ E E G E D C D C E (play as many times as
needed throughout chorus)
  
[Post-chorus] (same as pre)
e|-----------------------------------------------------------------|
B|-----------------------------------------------------------------|
G|-----------------------------------------------------------------|
D|---5------7------------------------------------------------------|
A|---5------7------------------------------------------------------|
E|---3------5------------------------------------------------------|

[Intro/Verse]
e|---------------------------------------------------------------------------|
B|---------------------------------------------------------------------------|
G|---------------------------------------------------------------------------|
D|-----------------------------------repeat through verse--------------------|
A|-7-7-10-7---------7-7-10-7-------------------------------------------------|
E|----------10-8-7-----------10-8-7------------------------------------------|

[Post-chorus] (same as pre)
e|-----------------------------------------------------------------|
B|-----------------------------------------------------------------|
G|-----------------------------------------------------------------|
D|---5------7------------------------------------------------------|
A|---5------7------------------------------------------------------|
E|---3------5------------------------------------------------------|

[Chorus] is playing, while a solo is also playing.
[Solo]
e|---------------------------------------------------------------------------|
B|---------------------------------------------------------------------------|
G|-9-9-12-9-9-12-14----------------------------------------------------------|
D|-----------------------------2x--------------------------------------------|
A|---------------------------------------------------------------------------|
E|---------------------------------------------------------------------------|

e|-12-12-15-12-15-15-14/\-12-12-15-17-15-15-17-15-14-------------------------|
B|---------------------------------------------------------------------------|
G|---------------------------------------------------------------------------|
D|---------------------------------------------------------------------------|
A|---------------------------------------------------------------------------|
E|---------------------------------------------------------------------------|
  (Listen to song for correct timing!!)
e|-12-12-14-12-17-15/\-12-12-14-12-14-14-12----------------------------------|
B|------------------------------------------13-12----------------------------|
G|---------------------------------------------------------------------------|
D|---------------------------------------------------------------------------|
A|---------------------------------------------------------------------------|
E|---------------------------------------------------------------------------|
  Back to post chorus.
  Then Intro/Verse.
  One Last Chorus.
  End on "E"

************************************

| x  Dead note
| /  Slide up
| \  Slide down

************************************
Suggest correction
comments
print report bad tab
8 comments total. Showing first comments.
0 reply
punk_er_87 10 May 09, 2003 08:00 PM

sounds great, i thought it started lower but this sounds good!

0 reply
charlie_chick 10 Jun 18, 2003 08:00 PM

I agree,but it sounds great :D

0 reply
Glenelg 10 Jun 27, 2003 08:00 PM

The intro is definitely wrong.
But the rest sounds good

guest
Wanna post a correction for this tab? Suggest correction