Oops, an error
Loading. Please wait.

Seven Nation Army Bass Tab

version 4
61,116 views 951 this week
7 commentsread comments
1 2 3 4 5
x 15
add to favorites
launch autoscroll
font size
0
reset
guitar tuner
×
Best way to learn
"Seven Nation Army"
Autoscroll
slow
fast
+/-
esc
set tempo
stop
Artist: White Stripes
Song: Seven Nation Army
Album: Elephant

Tuning: Standard


I finally figured out one version that I think is it. It sounds good to me.
If you have any comments or need help IM me  AIM:Ozzman3388  or Sk8rD2002.

KEY|
/-slide
~-Ring
P- pull off


Intro
G|-------------------|------------------------------------------------------
D|-------------------|------------------------------------------------------
A|-------------------|------------------------------------------------------
E|-12-12-15-12-10-8-7|---3-3-3-3-3-3-3-3---5-5-5-5-5-5-5-5------------------
  |__Repeat 12 X's__|  then play this ^       


Verse
G|----------------------------------------------------|---------------------
D|----------------------------------------------------|---------------------
A|----------------------------------------------------|---------------------
E|-12-12/15/12/10/8/7-SLIDE---12-12-15-12-10-8-10-8-7-|-33333333-55555555---
   |__________Repeat both of these 2 X's____________| then play ^that

Solo
G|--------------------------------------------------------------------------
D|-------------10-9-9-7----12--10-12-10-10-12-9-7--------------10---10-9-7--
A|-12-12-12-12----------12-------------------------12-12-12-12---12---------
E|--------------------------------------------------------------------------

Solo Continued...
G|------------------------------12-12-12-15-12-12-15-14-14-10-12-12-15-17-15
D|-------10-12-10-10-12-10-9-7----------------------------------------------
A|-12-12--------------------------------------------------------------------
E|--------------------------------------------------------------------------

Solo Continued......
G|-15-17-15-14-14-10--12-12-12-14-12-12-17-14-10-12-12-14-12-12-12----------
D|--------------------------------------------------------------------------
A|--------------------------------------------------------------------------
E|--------------------------------------------------------------------------

Solo End...
G|-----------------------------------|
D|-----------------------------------|
A|-----------------------------------|
E|-3-3-3-3-3-3-3-3---5-5-5-5-5-5-5-5-|

Outro
G|-----------------------------------|
D|-----------------------------------|
A|-----------------------------------|
E|--12~/-P-0-------------------------|

~ let is ring for 5 seconds and then slide all the way down to 1st fret and pull
off so that only the E string will be heard.... thats it.


SONG FORMATION!!!
Intro
Verse
Intro
Solo
Solo End
Intro
Outro
Suggest correction
comments
print report bad tab
7 comments total. Showing first comments.
-2 reply
jgml 30 Sep 20, 2003 08:00 PM

The verse are not what you said in it is 7 7 10 7 5 3 2 on the second deepest string(that what think)

+1 reply
sheba_creedance 30 Jan 03, 2004 07:00 PM

ahhh I get it... it's a guitar with an octave pedal... i think I'll blow a few hundred bucks on one when it sounds decent on a BASS GUITAR

+1 reply
ste_lyons 41 Jan 12, 2005 07:00 PM

Hey listen, listen. On the cd, Jack White plays the bass and the guitar but when they're playin it live, he either uses an octave pedal OR tunes the strings to BGDGBE (low to high). That way u can play the bass intro & verses like --5---5-8-5-3-1---0-- on the low B string and the chorus like:

E|-----------------------------------------------|
B|-----------------------------------------------|
G|--7---7-10-7-5-3-2-------7---7-10-7-5-3-5-3-2--| x 2
D|--7---7-10-7-5-3-2-------7---7-10-7-5-3-5-3-2--|
G|--7---7-10-7-5-3-2-------7---7-10-7-5-3-5-3-2--|
B|-----------------------------------------------|

E|-----------------------------------|
B|-----------------------------------|
G|--0-0-0-0-0-0-0-0-2-2-2-2-2-2-2-2--|
D|--0-0-0-0-0-0-0-0-2-2-2-2-2-2-2-2--|
G|--0-0-0-0-0-0-0-0-2-2-2-2-2-2-2-2--|
B|-----------------------------------|

See? Simple!

guest
You may want to rate the tab now too:
select rating
Wanna post a correction for this tab? Suggest correction