Oops, an error
Loading. Please wait.

Seven Nation Army Bass

version 4
41,469 views 771 this week
no commentswrite comment
1 2 3 4 5
x 7
add to favorites
launch autoscroll
font size
0
reset
guitar tuner
backing track
0:00
0:00
×
Best way to learn
"Seven Nation Army"
Autoscroll
slow
fast
+/-
esc
set tempo
stop
Difficulty
novice
Artist: White Stripes
Song: Seven Nation Army
Album: Elephant

Tuning: Standard


just another version of the fingering, I find it easier to fingerwalk with these tabs.
Contact/check me out: NSFH on facebook or ubermatureshit on  youtube



KEY|
/-slide
~-Ring
P- pull off


Intro
G|-----0-------------|------------------------------------------------------|
D|---------0---------|------------------------------------------------------|
A|-7-7---7-----------|---------------------0-0-0-0-0-0-0-0------------------|
E|-----------8-7-----|---3-3-3-3-3-3-3-3------------------------------------|
  |__Repeat 12 X's__|  then play this ^


Verse
G|----------------------------------------------------|---------------------|
D|----------------------------------------------------|---------------------|
A|----------------------------------------------------|---------------------|
E|-12-12/15/12/10/8/7-SLIDE---12-12-15-12-10-8-10-8-7-|-33333333-00000000---|
   |__________Repeat both of these 2 X's____________| then play ^that

Solo
G|--------------------------------------------------------------------------|
D|-------------10-9-9-7----12--10-12-10-10-12-9-7--------------10---10-9-7--|
A|-12-12-12-12----------12-------------------------12-12-12-12---12---------|
E|--------------------------------------------------------------------------|

Solo Continued...
G|------------------------------12-12-12-15-12-12-15-14-14-10-12-12-15-17-15-|
D|-------10-12-10-10-12-10-9-7-----------------------------------------------|
A|-12-12---------------------------------------------------------------------|
E|---------------------------------------------------------------------------|

Solo Continued......
G|-15-17-15-14-14-10--12-12-12-14-12-12-17-14-10-12-12-14-12-12-12----------|
D|--------------------------------------------------------------------------|
A|--------------------------------------------------------------------------|
E|--------------------------------------------------------------------------|

Solo End...
G|-----------------------------------|
D|-----------------------------------|
A|-------------------0-0-0-0-0-0-0-0-|
E|-3-3-3-3-3-3-3-3-------------------|

Outro
G|-----------------------------------|
D|-----------------------------------|
A|-----------------------------------|
E|--12~/-P-0-------------------------|

~ let is ring for 5 seconds and then slide all the way down to 1st fret and pull
off so that only the E string will be heard.... thats it.


SONG FORMATION!!!
Intro
Verse
Intro
Solo
Solo End
Intro
Outro

END
Suggest correction
comments
print report bad tab
guest
You may want to rate the tab now too:
select rating
Wanna post a correction for this tab? Suggest correction