Oops, an error
Loading. Please wait.

Seven Nation Army Bass Tab

version 4
1,001,930 views 2,613 this week
87 commentsread comments
1 2 3 4 5
excellent!
x 614
add to favorites
launch autoscroll
font size
0
reset
guitar tuner
Tab Pro tools
  • play this tab
  • loop segment
  • change instrument
  • show fretboard
  • metronome
×
Best way to learn
"Seven Nation Army"
Autoscroll
slow
fast
+/-
esc
set tempo
stop
Contributor
G|---------------------------------------------|
D|---------------------------------------------|
A|--7-7-10-7-5-3-2-----------------------------|  x12
E|---------------------------------------------|

G|---------------------------------------------|
D|---------------------------------------------|
A|---------------------------------------------|
E|-3-3-3-3-3-3-3-3---5-5-5-5-5-5-5-5-----------|

G|---------------------------------------------|
D|---------------------------------------------|
A|--7-7-10-7-5-3-2-----------------------------|
E|---------------------------------------------|

G|---------------------------------------------|
D|---------------------------------------------|
A|--7-7-10-7-5-3-5-3-2-------------------------|
E|---------------------------------------------|

G|---------------------------------------------|
D|---------------------------------------------|
A|--7-7-10-7-5-3-2-----------------------------|
E|---------------------------------------------|

G|---------------------------------------------|
D|---------------------------------------------|
A|--7-7-10-7-5-3-5-3-2-------------------------|
E|---------------------------------------------|

G|---------------------------------------------|
D|---------------------------------------------|
A|---------------------------------------------|
E|-3-3-3-3-3-3-3-3---5-5-5-5-5-5-5-5-----------|

G|---------------------------------------------|
D|---------------------------------------------|
A|--7-7-10-7-5-3-2-----------------------------|  x12
E|---------------------------------------------|

G|---------------------------------------------|
D|---------------------------------------------|
A|---------------------------------------------|
E|-3-3-3-3-3-3-3-3---5-5-5-5-5-5-5-5-----------|

G|---------------------------------------------|
D|---------------------------------------------|
A|--7-7-10-7-5-3-2-----------------------------|
E|---------------------------------------------|

G|---------------------------------------------|
D|---------------------------------------------|
A|--7-7-10-7-5-3-5-3-2-------------------------|
E|---------------------------------------------|

G|---------------------------------------------|
D|---------------------------------------------|
A|--7-7-10-7-5-3-2-----------------------------|
E|---------------------------------------------|

G|---------------------------------------------|
D|---------------------------------------------|
A|--7-7-10-7-5-3-5-3-2-------------------------|
E|---------------------------------------------|

G|---------------------------------------------|
D|---------------------------------------------|
A|--7-7-10-7-5-3-2-----------------------------|
E|---------------------------------------------|

G|---------------------------------------------|
D|---------------------------------------------|
A|--7-7-10-7-5-3-5-3-2-------------------------|
E|---------------------------------------------|

G|---------------------------------------------|
D|---------------------------------------------|
A|--7-7-10-7-5-3-2-----------------------------|
E|---------------------------------------------|

G|---------------------------------------------|
D|---------------------------------------------|
A|--7-7-10-7-5-3-5-3-2-------------------------|
E|---------------------------------------------|

G|---------------------------------------------|
D|---------------------------------------------|
A|---------------------------------------------|
E|-3-3-3-3-3-3-3-3---5-5-5-5-5-5-5-5-----------|

G|---------------------------------------------|
D|---------------------------------------------|
A|--7-7-10-7-5-3-2-----------------------------|  x12
E|---------------------------------------------|

G|---------------------------------------------|
D|---------------------------------------------|
A|---------------------------------------------|
E|-3-3-3-3-3-3-3-3---5-5-5-5-5-5-5-5-----------|

G|---------------------------------------------|
D|---------------------------------------------|
A|--7-7-10-7-5-3-2-----------------------------|
E|---------------------------------------------|

G|---------------------------------------------|
D|---------------------------------------------|
A|--7-7-10-7-5-3-5-3-2-------------------------|
E|---------------------------------------------|

G|---------------------------------------------|
D|---------------------------------------------|
A|--7-7-10-7-5-3-2-----------------------------|
E|---------------------------------------------|

G|---------------------------------------------|
D|---------------------------------------------|
A|--7-7-10-7-5-3-5-3-2-------------------------|
E|---------------------------------------------|
comments
print report bad tab
87 comments total. Showing first comments. show 1 bad comment
+7 reply
guitarman1507 wrote on January 14 2005, 12:00 am

Good job. Sounds Right. Some people don't have a suboctive pedal for there guitar thats why there is a bass tab. Even though there is only 1 guitar and 1 drummer in WS. Good Tab.

+22 reply
doomsday_device wrote on October 24 2005, 06:09 pm

im pretty sure we ALL know that there is no bass in the song, but holy shit guys if ur a bass player and want to play a cool tune ( in which i think it is ) u can STILL play it on bass, we all know its played on guitar but that dusnt mean u cant play it on ne other instrument, shoot if i was a violin player i would still try to play it......lol

I want to post or [tab]
guest
You may want to rate the tab now too:
select rating
Please do not post tabs as comments. Select "correction" instead!