Oops, an error
Loading. Please wait.
We have an official Seven Nation Army tab made by UG professional guitarists. Check out the tab »
×
301 views 3 this week
5 commentsread comments
1 2 3 4 5
1 last vote to show rating
add to favorites
×
Save as Personal and add changes to this tab that will be seen only by you. Learn more ›
×
You can save this tab as Personal to edit and correct it or add notes. All changes will be seen only by you. Learn more »
launch autoscroll
font size
0
reset
guitar tuner
backing track
0:00
0:00
edit
Autoscroll
slow
fast
+/-
esc
set tempo
stop
Seven nation army the white stripes(bass tab)
TAB made by: Hunter D.

G|-------------------------------|
D|-------------------------------|  x12
A|---7-7--10--7--5-3-2-----------|
E|-------------------------------|

G|-------------------------------|
D|-------------------------------|
A|-------------------------------|
E|--33333333-----55555555--------|

G|-------------------------------------|
D|-------------------------------------|  x2
A|--7-7-10-7-5-3-2---7-7-10-7-5-3-5-3-2|
E|-------------------------------------|

G|-------------------------------|
D|-------------------------------|
A|-------------------------------|
E|--33333333-----55555555--------|

G|-------------------------------|
D|-------------------------------|  x12
A|---7-7--10--7--5-3-2-----------|
E|-------------------------------|

G|-------------------------------|
D|-------------------------------|
A|-------------------------------|
E|--33333333-----55555555--------|

G|-------------------------------------|
D|-------------------------------------|  x2
A|--7-7-10-7-5-3-2---7-7-10-7-5-3-5-3-2|
E|-------------------------------------|

G|-------------------------------|
D|-------------------------------|
A|-------------------------------|
E|--33333333-----55555555--------|

G|-------------------------------|
D|-------------------------------|  x12
A|---7-7--10--7--5-3-2-----------|
E|-------------------------------|

G|-------------------------------|
D|-------------------------------|
A|-------------------------------|
E|--33333333-----55555555--------|

G|-------------------------------------|
D|-------------------------------------|  x2
A|--7-7-10-7-5-3-2---7-7-10-7-5-3-5-3-2|
E|-------------------------------------|

            
            
Suggest correction
Creating personal tab
Creating personal tab
You can edit any tab online and save it as your Personal.

You can edit, replace or remove any tab part or add personal notes – all changes will be seen only by you.

Personal tabs can be accessed anytime from any device, even offline.
Learn more »
Give kudos to tab author, rate the tab!
1 2 3 4 5
comments
print report bad tab
5 comments total. Showing first comments.
0 reply
ChillyDog 10 Mar 06, 2017 06:38 PM

You nailed the bridge where some others have missed it, but I believe the main verse is 10, not a 9. At least off the album. Thanks for clearing up the bridge for me!

0 reply
hunter_deloche 52 Mar 19, 2017 12:29 PM

No propblem love to help!

0 reply
ohouliscsi 271 Apr 14, 2017 07:24 PM

Don't know why this tab has been approved as some better and more accurate tabs have already been made.

guest
You may want to rate the tab now too:
select rating
Wanna post a correction for this tab? Suggest correction