Oops, an error
Loading. Please wait.
We have an official Sugar Never Tasted So Good tab made by UG professional guitarists. Check out the tab »
×
1,484 views 3 this week
no commentswrite comment
1 2 3 4 5
2 more votes to show rating
add to favorites
×
Save as Personal and add changes to this tab that will be seen only by you. Learn more ›
×
You can save this tab as Personal to edit and correct it or add notes. All changes will be seen only by you. Learn more »
launch autoscroll
font size
0
reset
how to read this tab
guitar tuner
edit
Autoscroll
slow
fast
+/-
esc
set tempo
stop
Author
Difficulty
Sugar Never Tasted so Good

The White Stripes


I think that Jack plays this song with his guitar tuned down a whole step, that makes 
tuning (Low to High): DGCFAd

Alright, so here it is:

Main Riff

Barre the A chord with your index finger

        A
|----|--x-x-x-x-x-x--x----|----|
|----|*-2-2-2-2-2-2--2---*|----|
|----|--2-2-2-2-2-2--2----|----|
|----|--2-2-2-2-2-2--2----|----|
|-3h4|*-0-0-0-0-0-0--3h4-*|----|
|----|--x-x-x-x-x-x--x----|-3--|


If the wrinke daddies in your brain...

Just these 3 Chords:

  A   C   D
|-x---0---2--|
|-2---1---3--|
|-2---0---2--|
|-2---2---0--|
|-0---3---x--|
|-x---x---x--|

Then comes a variation of the main riff

        A
|----|--x-x-x-x-x-x--x----|-------|
|----|*-2-2-2-2-2-2--2---*|-------|
|----|--2-2-2-2-2-2--2----|-------|
|----|--2-2-2-2-2-2--2----|-------|
|-3h4|*-0-0-0-0-0-0--3h4-*|-------|
|----|--x-x-x-x-x-x--x----|-5-4-3-|

And it ends with this

  D   A/C A
|-5---x---x--|
|-3---2---2--|
|-2---2---2--|
|-0---2---2--|
|-x---3---0--|
|-x---x---x--|

There are a few small variations, but that's pretty much right if you tune down your guitar.

comments, etc- sent to markosmeyer@gmail.com
Suggest correction
Creating personal tab
Creating personal tab
You can edit any tab online and save it as your Personal.

You can edit, replace or remove any tab part or add personal notes – all changes will be seen only by you.

Personal tabs can be accessed anytime from any device, even offline.
Learn more »
Give kudos to tab author, rate the tab!
1 2 3 4 5
comments
print report bad tab
guest
You may want to rate the tab now too:
select rating
Wanna post a correction for this tab? Suggest correction