Oops, an error
Loading. Please wait.

The Hardest Button To Button Bass

version 1
version 1
42,972 views 81 this week
11 commentsread comments
1 2 3 4 5
x 21
add to favorites
launch autoscroll
font size
0
reset
guitar tuner
backing track
0:00
0:00
×
Best way to learn
"The Hardest Button To Button"
Autoscroll
slow
fast
+/-
esc
set tempo
stop
Author
[Intro](2x)
G|------------------------|
D|------------------------|
A|------------------------|
E|-5--5--5--5--5--5--5--5-|

[Verse] (3x)
G|------------------------|
D|------------------------|
A|------------------------|
E|-5--5--5--5/-8--8--8--8\| (3x)

G|----------------------------|
D|----------------------------|
A|----------------------------|
E|-7--7--7--7--10--10--10--10-| 

[Pre-Chorus]
G|------------------------|
D|------------------------|
A|------------------------|
E|-5--5--5--5/-8--8--8--8\| (3x)

G|------------------------|
D|------------------------|
A|------------------------|
E|-7--7--7--7--6--6--6--6-| 

[Chorus]
G|------------------------------|
D|------------------------------|
A|----------------------(0)-----|
E|-5--5----5-0-5-8--8----8-10-8-| (3x)

G|----------------------------|
D|----------------------------|
A|----------------------------|
E|7--7----7-0-7-6--6----6-0-6-| 

[Bridge]
G|-------------|
D|-------------|
A|-------------|
E|-5555----8888| (3x)

G|-------------|
D|-------------|
A|-------------|
E|-7777----6666|



************************************

| /    Slide up
| \    Slide down
| (n)  Ghost note

************************************
Suggest correction
comments
print report bad tab
11 comments total. Showing first comments.
0 reply
corgan_06 60 Oct 08, 2003 08:00 PM

sweet tab, finally soemone got it. Probably a copy but you saved me some cash,thanks.

0 reply
SkaterD2002 600 Mar 24, 2004 07:00 PM

its funny, how do they get the low bass sound. yes a footpedal, let them play how they want or do what they want, bitchin ***

+2 reply
iampinkfloyd 221 Apr 30, 2004 08:00 PM

Ok, lets clear this up once and for all. He uses a guitar with an octave pedal, so essentially he is playing bass. Anyone who wants to play this at a gig either needs a bssist or the pedal. Either way works, so no reason to get mad and insult each other. Good tab man, maybe more on the outro.

guest
You may want to rate the tab now too:
select rating
Wanna post a correction for this tab? Suggest correction