Oops, an error
Loading. Please wait.

The Union Forever tab

version 1
version 1

Whole song

Interactive

21,518 views 18 this week
7 commentsread comments
1 2 3 4 5
x 13
add to favorites
×
Save as Personal and add changes to this tab that will be seen only by you. Learn more ›
×
You can save this tab as Personal to edit and correct it or add notes. All changes will be seen only by you. Learn more »
launch autoscroll
font size
0
reset
how to read this tab
guitar tuner
edit
Autoscroll
slow
fast
+/-
esc
set tempo
stop
Author
Theres no timing on the chords (obviously) im sure u can all work it out, i have faith in you!

Intro/Verse:

E|---------0--------|-------------------|
B|-----------0------|-------------------|
G|------0------0----|-------3----3------|
D|-----2---------2--|-----3----3----3---|
A|----2-------------|--1----------------|
E|--0---------------|-------------------|

Bridge:

E|---------------------------|
B|---------------------------|
G|----4-----------3----------|
D|----4-----5-----3-----2----|
A|----2-----5-----1-----2----|
E|----------3-----------0----|

Chorus:       
   
E|--------------|
B|--------------|
G|---------3----|
D|----2----3----|
A|----2----1----|
E|----0---------|

At the end of "there is a man, a certain man.." Jack hits this chord

E|---------|
B|---------|
G|----9----|
D|----9----|
A|----7----|
E|---------|

Verse 2: 

He picks out the chords rather ramdomly in this verse but this is roughly how it goes

E|-----------------|------------------|
B|-----------------|------------------|
G|-----------------|--------3---3-----|
D|-------2---2-----|------3---3---0---|
A|-----2---2---0---|---1--------------|
E|---0-------------|------------------|

heres is the order:

intro/verse x8
bridge
verse x4
bridge
verse x6
chorus x4
bridge
"there is a man, a certain man.."
verse 2 x6
chorus x4
bridge

            
            
Suggest correction
Creating personal tab
Creating personal tab
You can edit any tab online and save it as your Personal.

You can edit, replace or remove any tab part or add personal notes – all changes will be seen only by you.

Personal tabs can be accessed anytime from any device, even offline.
Learn more »
comments
print report bad tab
7 comments total. Showing first comments.
0 reply
westbrookphila3 10 Feb 09, 2009 06:12 PM

great tab, i love this song, and the white stripes in general. Great job.

-1 reply
Royall 10 Jun 08, 2009 06:39 PM

The actual Intro/Verse would be:

E|---------0--------|-------------------|
B|-----------0------|-------------------|
G|------0------0----|-------3----3------|
D|-----2---------2--|-----3----3--------|
A|----2-------------|--1------------1---|
E|--0---------------|-------------------|

That last note is a 1 on A, not another 3.

0 reply
WoeChicks 10 Mar 07, 2010 11:03 AM

Great tab, i disagree with the correction above me, yours sounds right

guest
You may want to rate the tab now too:
select rating
Wanna post a correction for this tab? Suggest correction