Oops, an error
Loading. Please wait.

Truth Doesnt Make A Noise tab

version 1
version 1

Whole song

Interactive

70,223 views 69 this week
7 commentsread comments
1 2 3 4 5
x 30
add to favorites
×
Save as Personal and add changes to this tab that will be seen only by you. Learn more ›
×
You can save this tab as Personal to edit and correct it or add notes. All changes will be seen only by you. Learn more »
launch autoscroll
font size
0
reset
how to read this tab
guitar tuner
edit
Autoscroll
slow
fast
+/-
esc
set tempo
stop
Author
The White Stripes - Truth Doesn't Make a Noise

Tab Definitions:        
Am: x02210                                              
G: 320003                                       
C: x32010                                               
D: xx0232       
E: 022100       

[Intro]

 Am
 Guitar 2:
e|--------------------------------------------------------------------|
B|--------------------------------------------------------------------|
G|--------------------------------------------------------------------|
D|--------------------------------------------------------------------|
A|--2h3-5p3-2p0----0h2h3-5p3-2p0-0--0h2h3-5p3-2p0----0-2-3-5p3-2p0-0--|
E|--------------3---------------------------------3-------------------|

 Riff: Guitar 2 (Played 2x)
e|--------------------------------|
B|--------------------------------|
G|--------------------------------|
D|--------------------------------|
A|--2h3-5p3-2p0----2h3-5p3-2p0-0--|
E|--------------3-----------------|


[Verse]
(Guitar 1)

Am                       G
My baby's got a heart of stone
          C           D          Am
Can't you people just leave her alone
                         G        C
She never did nothing to hurt you
        D          Am
So just leave her alone
                       G
The motion of her tiny hands
        C             D       Am
And the quiver of her bones below
                         G
Are the signs of a girl alone
             C              D       C
And tell you everything you need to know


[Chorus]

C                     D
I can't explain it, I feel it often
                     Am 
Every time I see her face


[Piano Riff]

    Am
e|--------------------------|
B|----0-1-0----------0-1-0--|
G|--2-------0-2-2--2--------|
D|--------------------------|
A|--------------------------|
E|--------------------------|
        C                      D
But the way you treat her, it fills me with rage
                             E     X  X X
And I want to tear apart the place


[Break] x2 

    Guitar 2         Piano
e|-------------------------------------------------------|
B|------------------1-1-1-0-1-----------------0-0-0---0--| 
G|--------------------------------------------------2----|
D|-------------------------------------------------------|
A|-0-2-3-5p3-2p0-0-------------2h3-5p3-2p0---------------|
E|-----------------------------------------3-------------|

[Riff]


[Verse]

Am                          G
You try to tell her what to do
    C               D        Am
And all she does is stare at you
                              G
Her stare is louder than your voice
        C             D      C
Because truth doesn't make a noise
                         D
No, truth doesn't make a noise
                     E     X  X X
Truth doesn't make a noise


[Break]


[Chorus]

C N.C.                D N.C.
I can't explain it, I feel it often
                     Am   Piano Riff  C
Every time I see her face
N.C.
But the way you treat her, it fills me with rage
                             E     X  X X
And I want to tear apart the place

[Break] x4
(with some piano rhythm changes)

Am



************************************

| h  Hammer-on
| p  Pull-off

************************************

            
            
Suggest correction
Creating personal tab
Creating personal tab
You can edit any tab online and save it as your Personal.

You can edit, replace or remove any tab part or add personal notes – all changes will be seen only by you.

Personal tabs can be accessed anytime from any device, even offline.
Learn more »
comments
print report bad tab
7 comments total. Showing first comments.
+2 reply
joedis07 10 Mar 27, 2008 08:28 AM

great tab! everything seems correct except for the fact that it's not in standard tuning. Eb tuning ([low to high]Eb, Ab, Db, Gb, Bb, Eb)

+4 reply
statichead 10 Aug 08, 2009 07:50 AM

I like to play the break this way. Sounds more powerful with an acoustic. Great tab.

Break (Played 2x)
Guitar 2
|-------------------------------------------------------|
|------------------1-1-1-0-1-----------------0-0-0-0-0--|
|------------------2-2-2-2-2-----------------0-0-0-2-0--|
|------------------2-2-2-2-2-----------------2-2-2-2-2--|
|-0-2-3-5p3-2p0-0-------------2h3-5p3-2p0----2-2-2-2-2--|
|-----------------------------------------3-------------|

0 reply
JLWL 80 May 16, 2010 04:44 AM

Good tabbing :)

guest
You may want to rate the tab now too:
select rating
Wanna post a correction for this tab? Suggest correction