Oops, an error
Loading. Please wait.

Walking With A Ghost Tab

version 1
version 1

Album

Whole song

Interactive

23,191 views 12 this week
2 commentsread comments
1 2 3 4 5
excellent!
x 3
add to favorites
launch autoscroll
font size
0
reset
how to read this tab
guitar tuner
Tab Pro tools
  • play this tab
  • loop segment
  • change instrument
  • show fretboard
  • metronome
×
Best way to learn
"Walking With A Ghost"
Autoscroll
slow
fast
+/-
esc
set tempo
stop
Contributor
The White Stripes - Walking with a Ghost

1. Walking with a Ghost
2. Same Boy You've Always Known (Live)
3. Screwdriver (Live)
4. The Denial Twist (Live)
5. As Ugly as a Seem (Live)

1. Walking with a Ghost

Intro/Riff
|------------------------|
|------------------------|
|--11-11--7-7--9-9--9-7--|
|--11-11--7-7--9-9--9-7--|
|--9--9---5-5--7-7--7-5--|
|------------------------|

Break (Play 4 Times)
|--------11-12--|
|--11-12--------|
|---------------|
|---------------|
|---------------|
|---------------|  

Break 2 (Break 1 then)
|--10-9-------|
|-------10-9--|
|-------------|
|-------------|
|-------------|
|----(4x)-----|

__________________________________________________________________________

2. Same Boy You've Always Known (Live)

Intro (Play 2 Times) 
|-----------------0--|
|-----------------3--|
|--2/4-2----------2--|
|----------0h2-0-----|
|--------0-----------|
|--------------------|

Verse:
D	   A		  	     D     
you fell down of course and then you 
                              A    D
got up of course and started over
           A               D
forgot my name of course
                       A     D  C
then you started to remember

Chorus
                           G                    A       G A
pretty tough to think about the beginning of December
C                           G                       
pretty tough to think about     
                       A           D				 A    D
pretty tough to think about  yeah yeah pretty tough to think about

Verse:
		  A	     D			      A    D
you're looking down again	and then you look me over
              A           D                   	      A    D  C
we're laying down again 	on a blanket in the clover
			     G				   A    G A
the same boy you've always known well I guess I haven't grown
C				   G
the same boy you've always known 
			     A    G 
the same boy you've always known         

Bridge:
N.C
think of what the past did it could've lasted
                   A
so put it in your basket
N.C.
I hope you know a strong man who can lend you a hand
	      E
lowering my casket  

Solo
|-----------------------|
|------3-------3--------|
|--2/4---2-2/4---4p2p0--|
|-----------------------|
|-----------------------|
|-----------------------|       
                                              
Verse:
A			  D			   A	    D
I thought this is just today and soon you'll be returning
	     A		       	      D			   	   A   D
the coldest blue ocean water cannot stop my heard and mind from burning
    C                        G                    	 A    
everyone who's in the know says    that's exactly how it goes
 C                                    G                         A
and if there's anything good about me	 I'm the only one who knows

__________________________________________________________________________

3. Screwdriver (Live)

Intro/Riff
|---------------(Play 2 Times)-----------|----------------------|
|----------------------------------------|----------------------|
|------------------5---5-7-5-7b-5-7-5----|----------------------|
|--7-7-7-7-5-5-7-7---7----------------7--|--7-7-7-7-5-5-7-5-7~--|
|--7-7-7-7-5-5-7-7-----------------------|--7-7-7-7-5-5-7-5-7~--|
|--5-5-5-5-3-3-5-5-----------------------|--5-5-5-5-3-3-5-3-5~--|

Verse:
A5                  G5
Tuesday morning now
                             A5
I gotta have somewhere to go
                    G5
I call up Tommy now
                            A5
I call him on the telephone
                                        G5
Won't you wake up and come with me, now
                               A5
I'm going to the pawn and loan
                          G5
Walkin' down thirty-three
                         A5 C5
Walkin' down thirty-'o

Yeah!

Bridge:
A5                               G5
I got a little feeling goin' now
                                 A5
I got a little feeling goin' now
                                 G5
I got a little feeling goin' now
                                 A5
I got a little feeling goin' now
                                 G5
I got a little feeling goin' now
                                 A5
I got a little feeling goin' now
                                 C5
I got a little feeling goin' now
	                         A5
I got a little feeling goin' now
                                 C5
I got a little feeling goin' now
	                         A5
I got a little feeling goin' now
   			         C5
I got a little feeling goin' now

____________________________________________________________________________

4. The Denial Twist (Live)

Verse:
       A N.C.               C N.C.
If you think that a kiss is all in the lips
     G N.C.             A N.C.
Come on, you got it all wrong, man
           A N.C.                   C N.C.
And if you think that our dance was all in the hips
    G N.C.            A
Oh, well, then do the twist
       A N.C.                   C N.C.
If you take holdin' hands, it's all in the fingers
     G N.C.                     A              /g
Grab hold of the soul where the memory lingers
    A N.C.              C N.C.
And  make sure to never do it with them singers
               G N.C.               A
'Cause they'll tell everyone in the world
/g          C         G        A
What he was thinkin' about the girl
               C         G        A    /g
Yeah what he's thinkin' about the girl

Chorus:
A A /g
      Oh,
E
  The boat, yeah, you know she's rockin' it
G
  And the truth, well, you know there's no stoppin' it
     E
  Oh, the boat, yeah, you know she's still rockin' it
G
  And the truth, well, you know there's no stoppin' it

Break
|--------------------------------------|
|--------------------------------------|
|--------------------------------------|
|--7-5---------------------------------|
|-------7--5--5h7--b5--5b6r5p3-5p3--0--|
|--------------------------------------|

Break 2
|------------------------------------|
|------------------------------------|
|------------------------------------|
|------0-2--5---7--7-5-7b-7-7-5-7b~--|
|--0-3-------------------------------|
|------------------------------------|

__________________________________________________________________________

5. As Ugly as a Seem (Live)

Intro
|-----------------------------------------------------------------------|
|-0--3--3-2-0-2-----------3--3-2-0-2---0--2----3--3-2-0--0--2-----------|
|-2-------------2-0--2--2------------2------2-----------------2--0-0h2--|
|-2---------------------------------------------------------------------|
|----0---0---0---0---0---0---0---0---0---0---0---0---0---0---0---0---0--|
|-----------------------------------------------------------------------|

Verse
|--------------------------------------------------------|
|-2--------2--------/3-----2---0-----------2----------2--|
|-----2---------2--------------------2---------0h2-------|
|--------------------------------------------------------|
|---0----0-----0----0-----0----0----0----0----0-----0----|
|--------------------------------------------------------|
   I                           I'm as ugly as I seem

                                       G
|----------------------------------------------------------------|
|-3----2-----0--------------0----------------0----------0--------|
|-----------------------2----------------0--------0-----------0--|
|-----------------------------------0----------------------------|
|---0-----0-----0----0-------------------------------------------|
|------------------------------3-------3------3-------3-------3--|
               Worse than all your dreams                       

                                    
|-----------------------------------------------------------------------|
|---0---0------------------2--------------------------------------------|
|--------------------------------2------2h3------2-------0------2-------|
|-----------------------------------------------------------------------|
|------------0-------0-------0-------0-------0-------0-------0-------0--|
|-3-----3-------3-------------------------------------------------------|
                          Could ever make me out to be

A
And it makes me want to scream
               G
When it's Halloween
                 A
And the kids are laughing

The rogue is a bank he's never broke
                       G
But worth as much as a joke
               A
That no one is laughing at

Break
|--------------------------------------------------------------------------|
|---------------------------------------2/3-2---0--------------------------|
|-------0----0---0----0-----0---------2-------2---0----0----0--0----0---0--|
|--0--2----4---4----2-----4-------0-2---------------2----4---4-----2---4---|
|---3----5--------3-----5----3-2-0--0--0---0---0--3----5---------3---5-----|
|--------------------------------------------------------------------------|
       
|---------------------------------------------------------------------|
|--------------------2---2/3-2---0---2-------2-------2/3-2---0--------|
|-------------0--2-----------------------2-------2---------------2----|
|--------0-2----------------------------------------------------------|
|--2-3-0---0---0---0---0---0---0---0---0---0---0---0---0---0---0---0--|
|---------------------------------------------------------------------|

____________________________________________________________________________
comments
We did not receive enough feedback on this tab! Please rate:
print report bad tab
1 2 3 4 5
2 comments total.
+1 reply
Semi_Hollow_Bod wrote on February 16 2008, 02:14 pm

A lot of this was ripped, or all.

0 reply
lowellhein wrote on March 30 2013, 06:07 pm

"SBYAK" looks a lot like Patrick Ferris' tab.

I want to post or [tab]
guest
You may want to rate the tab now too:
select rating
Please do not post tabs as comments. Select "correction" instead!