Oops, an error
Loading. Please wait.
We have an official Walking With A Ghost tab made by UG professional guitarists. Check out the tab »
×
2,823 views 1 this week
no commentswrite comment
1 2 3 4 5
2 more votes to show rating
add to favorites
×
Save as Personal and add changes to this tab that will be seen only by you. Learn more ›
×
You can save this tab as Personal to edit and correct it or add notes. All changes will be seen only by you. Learn more »
launch autoscroll
font size
0
reset
guitar tuner
edit
Autoscroll
slow
fast
+/-
esc
set tempo
stop
Author
Difficulty
Unregistered
-----------------------------------------------------------------------------
                             Walking With A Ghost - White Stripes
-----------------------------------------------------------------------------

I am pretty sure this is 100%, hope this helps, have fun playing it.

Okay There are only three parts to this song.

Tuning: Standard

No matter which way you go.... part (btw thats 2 10's not 1,0,1,0, and 2 12's not 1,2,1,2)
G|--------------------------------|
D|--------------------------------|
A|---99---------------------------|
E|------1010-1212-12-10-----------|

I was walking with a ghost... part
G|--------------------------------|
D|--------------------------------|
A|---44---------------------------|
E|------55-77-7-5-----------------|

Little interlude part (listen to the song to know where to come in and how many times to play it)
G|--------------------------------|
D|--------------------------------|
A|--76----------------------------|
E|-----76-------------------------|

| /  slide up
| \  slide down
| h  hammer-on
| p  pull-off
| ~  vibrato
| +  harmonic
| x  Mute note
=============================================================================

            
            
Suggest correction
Creating personal tab
Creating personal tab
You can edit any tab online and save it as your Personal.

You can edit, replace or remove any tab part or add personal notes – all changes will be seen only by you.

Personal tabs can be accessed anytime from any device, even offline.
Learn more »
Give kudos to tab author, rate the tab!
1 2 3 4 5
comments
print report bad tab
guest
Wanna post a correction for this tab? Suggest correction