Oops, an error
Loading. Please wait.

Were Going To Be Friends Tab

version 1
version 1

Whole song

Interactive

Video

470,833 views 828 this week
11 commentsread comments
1 2 3 4 5
x 182
add to favorites
launch autoscroll
font size
0
reset
how to read this tab
guitar tuner
Autoscroll
slow
fast
+/-
esc
set tempo
stop
Help us to improve Ultimate-Guitar.com Take our survey!
×
Author
Difficulty
novice
Tap along with your foot, it sounds good.


[Intro]

    G
e|---------------------------------------------------------------------------|
B|-----------0-------0-------0-----------------------------------------------|
G|---0---0-------0-------0-------0-------------------------------------------|
D|---------------------------------------------------------------------------|
A|---------------------------------------------------------------------------|
E|-3---3---3---3---3---3---3---3---------------------------------------------|


[Verse]


Fall is here, hear the yell         Brand new shoes, walking blues
 back to school, ring the bell
    G                                C
e|---------------------------------------------------------------------------|
B|---0-------0-------0-------0-------1-------1---0---------------------------|
G|-------0-------0-------0-------0-------0-----------------------------------|
D|---------------------------------------------------------------------------|
A|---------------------------------3---3---3---3-----------------------------|
E|-3---3---3---3---3---3---3---3---------------------------------------------|

 Climb the fence,  I can tell that we are gonna be friends
  book and pens
   G                 D     C         G
e|-------------------2-------------------------------------------------------|
B|-------0-------0-------3---3---3---0-------0---0---------------------------|
G|---0-------0---------------------------0-----------------------------------|
D|-----------------0---0-----------------------------------------------------|
A|-------------------------3---3---------------------------------------------|
E|-3---3---3---3-------------------3---3---3---3-----------------------------|
 
   I can tell that we are gonna be friends
   D       C       G
e|---2-----------------------------------------------------------------------|
B|-------3---3---3-------0-------0-------0-------0---------------------------|
G|-------------------0-------0-------0-------0-------------------------------|
D|-0---0---------------------------------------------------------------------|
A|---------3---3-------------------------------------------------------------|
E|-----------------3---3---3---3---3---3---3---3-----------------------------|


[Verse 2]

Walk with me, suzy lee            We will rest upon the ground
through the park, by the tree
    G                                C
e|---------------------------------------------------------------------------|
B|-------0-------0-------0-------0---1-------1---0---------------------------|
G|---0-------0-------0-------0-----------0-----------------------------------|
D|---------------------------------------------------------------------------|
A|---------------------------------3---3---3---3-----------------------------|
E|-3---3---3---3---3---3---3---3---------------------------------------------|

And look at all      Then safely walk to school without a sound
the bugs we've found
   G                 D     C         G
e|-------------------2-------------------------------------------------------|
B|-------0-------0-------3---3-------0-------0---0---------------------------|
G|---0-------0-------------------0-------0-----------------------------------|
D|-----------------0---0-----------------------------------------------------|
A|-------------------------3---3---------------------------------------------|
E|-3---3---3---3-------------------3---3---3---3-----------------------------|
 
   Then safely walk to school without a sound
   D       C       G
e|---2-----------------------------------------------------------------------|
B|-------3---3---3-------0-------0-------0-------0---------------------------|
G|-------------------0-------0-------0-------0-------------------------------|
D|-0---0---------------------------------------------------------------------|
A|---------3---3-------------------------------------------------------------|
E|-----------------3---3---3---3---3---3---3---3-----------------------------|


[Verse 3]

  Well here we are, no one else      There's dirt on our uniforms
we walked to school all by ourselves
    G                                C
e|---------------------------------------------------------------------------|
B|-------0-------0-------0---0---0---1---1---1---0---------------------------|
G|---0-------0-------0-------------------------------------------------------|
D|---------------------------------------------------------------------------|
A|---------------------------------3---3---3---3-----------------------------|
E|-3---3---3---3---3---3---3---3---------------------------------------------|

 From chasing all the  We clean up and now it's time to learn
  ants and worms
   G                 D     C         G
e|-------------------2-------0---------------3-------------------------------|
B|---0---0---0---0-------3---3---3-------0---0---0---------------------------|
G|-----------------------------------0---------------------------------------|
D|-----------------0---0-----------------------------------------------------|
A|-------------------------3---3---------------------------------------------|
E|-3---3---3---3-------------------3---3---3---3-----------------------------|
  
   We clean up and now it's time to learn
   D       C       G
e|---2-----------------------------------------------------------------------|
B|---3---3---3---3-------3-------3---3-------3---3---------------------------|
G|-------------------0-------0-----------0-----------------------------------|
D|-0---0---------------------------------------------------------------------|
A|---------3---3-------------------------------------------------------------|
E|-----------------3---3---3---3---3---3---3---3-----------------------------|


[Verse 4]

Numbers, letters, learn to spell   At playtime we will throw the ball
nouns, and books, and show and tell
    G                                C
e|---------------------------------------------------------------------------|
B|-------3-------3-------3-------0---1---1---1---0---------------------------|
G|---0-------0-------0-------0-----------------------------------------------|
D|---------------------------------------------------------------------------|
A|---------------------------------3---3---3---3-----------------------------|
E|-3---3---3---3---3---3---3---3---------------------------------------------|
 
 Back to class,      Teacher marks our height against the wall
  through the hall   
   G                 D     C         G
e|-------------------2-------------------------------------------------------|
B|---0-------0---0-------3---3---3-------3---0---3---------------------------|
G|-------0---------------------------0---------------------------------------|
D|-----------------0---0-----------------------------------------------------|
A|-------------------------3---3---------------------------------------------|
E|-3---3---3---3-------------------3---3---3---3-----------------------------|
   
   Teacher marks our height against the wall
   D       C       G
e|---2-----------------------------------------------------------------------|
B|---3---3---3---3-------3-------3-------3-------0---------------------------|
G|-------------------0-------0-------0-------0-------------------------------|
D|-0---0---------------------------------------------------------------------|
A|---------3---3-------------------------------------------------------------|
E|-----------------3---3---3---3---3---3---3---3-----------------------------|


[Bridge]

And we don't notice any time pass
e|---------------------------------------------------------------------------|
B|---1-------1---0-------0-------0-------------------------------------------|
G|-------0-----------0-------0-----------------------------------------------|  
D|---------------------------------------------------------------------------|     
A|-3---3---3---3-------------------------------------------------------------|  
E|-----------------3---3---3---3---------------------------------------------|

We don't notice anything
e|---------------------------------------------------------------------------|
B|---1-------1-----------0-------0-------------------------------------------|
G|-------0-------0---0-------0-----------------------------------------------|  
D|---------------------------------------------------------------------------|     
A|-3---3---3---3-------------------------------------------------------------|  
E|-----------------3---3---3---3---------------------------------------------|

We sit side by side in every class
e|---------------------------------------------------------------------------|
B|-------2---2-------2-------2---0-------------------------------------------|
G|---2-----------2-------2---------------------------------------------------|
D|---------------------------------------------------------------------------|
A|-0---0---0---0---0---0---0---0---------------------------------------------|
E|---------------------------------------------------------------------------|

Teacher thinks that i sound funny
 but she likes the way you sing
e|-----------------------2---------------------------------------------------|
B|---1---1---1---0---3-------3---3-------------------------------------------|
G|---------------------------------------------------------------------------|
D|-----------------0---0---0---0---------------------------------------------|
A|-3---3---3---3-------------------------------------------------------------|
E|---------------------------------------------------------------------------|


[Verse 5]

Tonight i'll dream while i'm in bed   About the bugs and alphabet
when sill thoughts go through my head
    G                                C
e|---------------------------------------------------------------------------|
B|---3-------3---3---3---3---3---0---1---1---1---0---------------------------|
G|-------0-------------------------------------------------------------------|
D|---------------------------------------------------------------------------|
A|---------------------------------3---3---3---3-----------------------------|
E|-3---3---3---3---3---3---3---3---------------------------------------------|

  And when i wake    That you and i will walk together again
tomorrow i'll bet
   G                 D     C         G
e|-------------------2-------------------------------------------------------|
B|---0---0---0---0-------3---3---3---3---3-----------------------------------|
G|-------------------------------------------0---0---------------------------|
D|-----------------0---0-----------------------------------------------------|
A|-------------------------3---3---------------------------------------------|
E|-3---3---3---3-------------------3---3---3---3-----------------------------|

 Cause i can tell that we are going to be friends 
   D       C       G
e|---2-----------------------------------------------------------------------|
B|-------3---3---3-------3-------3-------------------------------------------|
G|-------------------0-------0-----------------------------------------------|
D|-0---0---------------------------------------------------------------------|
A|---------3---3-------------------------------------------------------------|
E|-----------------3---3---3---3-------3-------------------------------------|

 Cause i can tell that we
  are going to be friends 
   D       C         G6
e|---2---------------0----|
B|-------3---3---3---3----|
G|-------------------0----|
D|-0---0-------------0----|
A|---------3---3-----x----|
E|-------------------3----|



Lyrics

[Verse]

Fall is here, hear the yell
Back to school, ring the bell
Brand new shoes, walking blues
Climb the fence, book and pens
I can tell that we are gonna be friends

Walk with me, suzy lee
Through the park, by the tree
We will rest upon the ground
And look at all the bugs we've found
Then safely walk to school
Without a sound

Well here we are, no one else
We walked to school all by ourselves
There's dirt on our uniforms
From chasing all the ants and worms
We clean up and now it's time to learn

Numbers, letters, learn to spell
Nouns, and books, and show and tell
At playtime we will throw the ball
Back to class, through the hall
Teacher marks our height against the wall

[Bridge]

And we don't notice any time pass
We don't notice anything
We sit side by side in every class
Teacher thinks that i sound funny
But she likes the way you sing

[Verse]

Tonight i'll dream while i'm in bed
When sill thoughts go through my head
About the bugs and alphabet
And when i wake tomorrow i'll bet
That you and i will walk together again
Cause i can tell that 
We are going to be friends



************************************

| x  Dead note

************************************
Suggest correction
comments
print report bad tab
11 comments total. Showing first comments.
+4 reply
dillpickle32 20 May 30, 2010 03:17 PM

THANK YOU! Someone FINALLY decided to put down a picking pattern!lol I was too lazy to figure it out for myself.lol Everyone else only would put chords. It is perfect just played through it with the music. Good job.

+4 reply
KOL-BOOT 10 Aug 29, 2010 01:56 AM

The 5th fret note that you have in the verse is technically the correct note but it isn't at all necessary to play it there. Just play an open D and it will make things much easier.

+2 reply
vfrfreak23 52 Jan 08, 2011 06:32 PM

In the verse, where it's on the fifth fret, it can actually played as an open D. Instead fifth fret on the A string, it can be an open D string

guest
You may want to rate the tab now too:
select rating
Wanna post a correction for this tab? Suggest correction