Oops, an error
Loading. Please wait.

Why Cant You Be Nicer To Me Chords

version 1
version 1

Whole song

Interactive

10 views 1 this week
no commentswrite comment
1 2 3 4 5
3 more votes to show rating
add to favorites
launch autoscroll
font size
0
reset
transpose
0
reset
display chords
guitar tuner
Autoscroll
slow
fast
+/-
esc
set tempo
stop
Help us to improve Ultimate-Guitar.com Take our survey!
×
Author
Half Step Down EbAbDbGbBbeb 


Intro: (also verse) 

E|------------------------------------------|
B|------3-----------3------------3----------|
G|------3b----------3b-----------3b---------|
D|-5-5--------5-5----------5-5--------3-3-3-|
A|-5-5--------5-5----------5-5--------3-3-3-|
E|-3-3------x-3-3--------x-3-3--------1-1-1-|

Verse 1:

G                     F                       G
Somebody's screaming, lookin' at the ceiling, oh-oh
G                      F                       G
Everything's so funny, I don't have the money, oh-oh
G                          F                             G
People don't even know me, but they know how to show me, oh-oh


Chorus 1: 

|------------3-3-1--------|
|-------------------------|
|-------------------0-3-0-|
|--5-5-5------------------|
|--5-5-5------------------|
|--3-3-3------------------|  (x3)


F                                 G
....Why can't you be nicer to me?


Verse 2:

G                  F                           G
My pride is dying, I think I'm all done lying, oh-oh
G                 F                 G
Nobody's sharing, so I stop caring, oh-oh
G                      F                 G 
All alone and walking, nobody's talking, oh-oh


Chorus 2: 

|------------3-3-1--------|
|-------------------------|
|-------------------0-3-0-|
|--5-5-5------------------|
|--5-5-5------------------|
|--3-3-3------------------|  (x3)


F                                 G
....Why can't you be nicer to me?


Verse 3:

G                         F                 G  
Well the wind is blowing, where am I going? oh-oh
G                         F                 G
Off a bridge and falling, nobody's calling, oh-oh
G                         F                 G
On the ground and laying, nobody's praying, oh-oh


Chorus 3: 

|------------3-3-1--------|
|-------------------------|
|-------------------0-3-0-|
|--5-5-5------------------|
|--5-5-5------------------|
|--3-3-3------------------|  (x3)


F                                 G
....Why can't you be nicer to me?





(end)


Suggest correction
Give kudos to tab author, rate the tab!
1 2 3 4 5
comments
print report bad tab
guest
You may want to rate the tab now too:
select rating
Wanna post a correction for this tab? Suggest correction