Oops, an error
Loading. Please wait.
We have an official Why Cant You Be Nicer To Me tab made by UG professional guitarists. Check out the tab »
×
13,946 views 18 this week
1 commentread comment
1 2 3 4 5
x 7
add to favorites
×
Save as Personal and add changes to this tab that will be seen only by you. Learn more ›
×
You can save this tab as Personal to edit and correct it or add notes. All changes will be seen only by you. Learn more »
launch autoscroll
font size
0
reset
how to read this tab
guitar tuner
edit
Autoscroll
slow
fast
+/-
esc
set tempo
stop
Author
Tabbers playing skills
----------------------------------------------------------------------------
             Why Can't You Be Nicer to Me? - The White Stripes
----------------------------------------------------------------------------


Tabbed by: Dave S. 
Email: prime-prine@hotmail.com

Tuning: (Standard) *Tuned Slightly Flat*

Artist: White Stripes
Album: De Stijl
Year: 2000                    

                            

Intro

E||-------------------------------|--------------------------------|
B||-------------------3-----------|--------------------3-----------|
G||-------------------3b*---------|--------------------3b*---------|
D||---5-------5-------------------|----5-------5-------------------|
A||---5-------5-------------------|----5-------5-------------------|
E||---3-------3-------------------|--x-3-------3-------------------|

    
|-------------------------------|----------------------|
|--------------------3\---------|----------------------|
|--------------------3\---------|----------------------|
|----5-------5------------------|--x--3------x--3------|
|----5-------5------------------|--x--3------x--3------|
|--x-3-------3------------------|--x--1------x--1------|

    
|-------------------------|---------------------------|
|--------------3----------|----------------3----------|
|--------------3b*--------|----------------3b*--------|
|--5-----5----------------|----5-----5----------------|
|--5-----5----------------|----5-----5----------------|
|--3-----3----------------|--x-3-----3----------------|


Verse
    
|---------------------------|---------------------------|
|----------------3----------|----------------3----------|
|----------------3b*--------|----------------3b*--------|
|----5-----5----------------|----5-----5----------------|
|----5-----5----------------|----5-----5----------------|
|--x-3-----3----------------|--x-3-----3----------------|

             
|---------------------------|----------------------------|-----------------|
|----------------3----------|----------------3--------0--|-----------------|
|----------------3b*--------|----------------3b*------0--|-----------------|
|----5-----5----------------|----5-----5--------------0--|--3--------------|
|----5-----5----------------|----5-----5-----------------|--3--------------|
|--x-3-----3----------------|--x-3-----3-----------------|--1--------------|

    
|---------------------------|---------------------------|
|----------------3----------|----------------3----------|
|----------------3b*--------|----------------3b*--------|
|----5-----5----------------|----5-----5----------------|
|----5-----5----------------|----5-----5----------------|
|--x-3-----3----------------|--x-3-----3----------------|

   
|---------------------------|---------------------------|
|----------------3----------|----------------3----------|
|----------------3b*--------|----------------3b*--------|
|----5-----5----------------|----5-----5----------------|
|----5-----5----------------|----5-----5----------------|
|--x-3-----3----------------|--x-3-----3----------------|

               
|---------------------------|----------------------------|-----------------|
|----------------3----------|----------------3--------0--|-----------------|
|----------------3b*--------|----------------3b*------0--|-----------------|
|----5-----5----------------|----5-----5--------------0--|--3--------------|
|----5-----5----------------|----5-----5-----------------|--3--------------|
|--x-3-----3----------------|--x-3-----3-----------------|--1--------------|

   
|---------------------------|---------------------------|
|----------------3----------|----------------3----------|
|----------------3b*--------|----------------3b*--------|
|----5-----5----------------|----5-----5----------------|
|----5-----5----------------|----5-----5----------------|
|--x-3-----3----------------|--x-3-----3----------------|

    
|---------------------------|---------------------------|
|----------------3----------|----------------3----------|
|----------------3b*--------|----------------3b*--------|
|----5-----5----------------|----5-----5----------------|
|----5-----5----------------|----5-----5----------------|
|--x-3-----3----------------|--x-3-----3----------------|

                
|---------------------------|----------------------------|-----------------|
|----------------3----------|----------------3--------0--|-----------------|
|----------------3b*--------|----------------3b*------0--|-----------------|
|----5-----5----------------|----5-----5--------------0--|--3--------------|
|----5-----5----------------|----5-----5-----------------|--3--------------|
|--x-3-----3----------------|--x-3-----3-----------------|--1--------------|

    
|---------------------------|---------------------------|
|----------------3----------|----------------3----------|
|----------------3b*--------|----------------3b*--------|
|----5-----5----------------|----5-----5----------------|
|----5-----5----------------|----5-----5----------------|
|--x-3-----3----------------|--x-3-----3----------------|

    
|---------------------------|---------------------------|
|----------------3----------|----------------3/---------|
|----------------3b*--------|----------------3/------0--|
|----5-----5----------------|----5-----5-------------0--|
|----5-----5----------------|----5-----5-------------0--|
|--x-3-----3----------------|--x-3-----3----------------|


Break/Solo
                  
|-----------------|--3---3--1-----------|
|-----------------|---------------------|
|-----------------|--0---0-----0--3--0--|
|--5--5-----5-----|---------3-----------|
|--5--5-----5-----|---------------1-----|
|--3--3-----3-----|------------3-----3--|

|-----------------|--3---3--1-----------|
|-----------------|---------------------|
|-----------------|--0---0-----0--3--0--|
|--5--5-----5-----|---------3-----------|
|--5--5-----5-----|---------------1-----|
|--3--3-----3-----|------------3-----3--|

|-----------------|--3---3--1-----------|
|-----------------|---------------------|
|-----------------|--0---0-----0--3--0--|
|--5--5-----5-----|---------3-----------|
|--5--5-----5-----|---------------1-----|
|--3--3-----3-----|------------3-----3--|
                 
|---------------------------------------|
|---------------------------------------|
|---------------------------------------|
|--3------------------------------------|
|--3------------------------------------|
|--1------------------------------------|


    
|-------------------------|---------------------------|
|--------------3----------|----------------3----------|
|--------------3b*--------|----------------3b*--------|
|--5-----5----------------|----5-----5----------------|
|--5-----5----------------|----5-----5----------------|
|--3-----3----------------|--x-3-----3----------------|

     
|---------------------------|----------------------|
|----------------3----------|----------------------|
|----------------3b*--------|----------------------|
|----5-----5----------------|--x--3------x--3------|
|----5-----5----------------|--x--3------x--3------|
|--x-3-----3----------------|--x--1------x--1------|


Repeat Verse
Repeat Break
Repeat Verse
Repeat Break

 
Outro
     
|-----------------|-----------------|-----------------|-----------------|
|-----------------|-----------------|-----------------|-----------------|
|-----------------|-----------------|-----------------|-----------------|
|---5----5--------|---5----5--------|---5----5--------|---5----5--------|
|---5----5--------|---5----5--------|---5----5--------|---5----5--------|
|-----------------|-----------------|-----------------|-----------------|


|--------3------------------------------||
|-------0-------------------------------||
|------0--------------------------------||
|-----0---------------------------------||
|---------------------------------------||
|--3------------------------------------||

| b* bend 1/4
| /  slide up
| \  slide down
| h  hammer-on
| p  pull-off
| ~  vibrato
| +  harmonic
| x  Mute note
===========================================================================

            
            
Suggest correction
Creating personal tab
Creating personal tab
You can edit any tab online and save it as your Personal.

You can edit, replace or remove any tab part or add personal notes – all changes will be seen only by you.

Personal tabs can be accessed anytime from any device, even offline.
Learn more »
comments
print report bad tab
1 comment total.
0 reply
bensickles 10 Jan 27, 2013 02:29 PM

the other tab as a better break part
other than that 5 stars :)

guest
You may want to rate the tab now too:
select rating
Wanna post a correction for this tab? Suggest correction