Oops, an error
Loading. Please wait.

You Dont Know What Love Is You Just Do As Youre Told intro tab

version 1
version 1

Intro

Whole song

Interactive

46,808 views 1 this week
6 commentsread comments
1 2 3 4 5
x 9
add to favorites
×
Save as Personal and add changes to this tab that will be seen only by you. Learn more ›
×
You can save this tab as Personal to edit and correct it or add notes. All changes will be seen only by you. Learn more »
launch autoscroll
font size
0
reset
how to read this tab
guitar tuner
edit
Autoscroll
slow
fast
+/-
esc
set tempo
stop
Difficulty
intermediate
This is the intro to The White Stripes' "You Don't Know What Love Is (You Just Do As 
Told", tabbed by me, Rafael Joson. This is my first submitted tab, since it's an easy song. 
have all you'll really need to know to get through the song, minus the solo, here. Good luck!

e|-------------3-3p2-----0------|
B|-2-2p0-------------0h2---2h0--| repeat this little thing once, then go
G|-------0h1-------------------2| straight into this:
D|------------------------------|
A|-----------0------------------|
E|-----------0------------------|

e|-----0---------------3-3p2-----0---------------------3-3p2----|
B|-0h2---2h0-----------------0h2---2h0-----2-2p0--------------2-|
G|-----------2p0-1----------------------2--------0h1----------2-| let
D|-----------------2------------------------------------------2-| last
A|-------------------0-------------------------------0----------| chord
E|-------------------0-------------------------------0----------| ring

e|----0------|
B|0h2---2h0--| repeat
G|----------2|
D|-----------|
A|-----------|
E|-----------|

Verses: A E D A

"And I hate to sound cold" : E A E

Chord solo: EEE GGG AAA

            
            
Suggest correction
Creating personal tab
Creating personal tab
You can edit any tab online and save it as your Personal.

You can edit, replace or remove any tab part or add personal notes – all changes will be seen only by you.

Personal tabs can be accessed anytime from any device, even offline.
Learn more »
comments
print report bad tab
6 comments total. Showing first comments.
-1 reply
ffnb1086 10 Jun 20, 2007 10:25 AM

on the whole OK. the verses go A E D A, then A E D E, then A E C G A, then softly A E D A, then into the chorus. listen to the song for the right time to change. the chorus also uses a C and a G chord

the little bridge/jam, whatever you want to call it, goes EEE GGG AAA then EEE CCC AAA... repeat

there's a little riff that he does in the intro and right before the start of the verses that i think you have wrong. or at least i think mine sounds a little better. listen to the album to get the timing just right and the feel of it. he may start off with an open G rather than a G#.

e|-----------|
B|-----3-2-0-|
G|--1/2-----2|
D|-----------|
A|-----------|
E|-----------|

+1 reply
ffnb1086 10 Jun 20, 2007 10:29 AM

actually. never mind. i think you're right about the riff. my fault. good tab man

0 reply
Tabassco 143 Jun 26, 2007 10:50 AM

I Think this tab rules :p

guest
Wanna post a correction for this tab? Suggest correction