Oops, an error
Loading. Please wait.
We have an official Youve Got Her In Your Pocket tab made by UG professional guitarists. Check out the tab »
×
71,620 views 132 this week
10 commentsread comments
1 2 3 4 5
x 66
add to favorites
×
Save as Personal and add changes to this tab that will be seen only by you. Learn more ›
×
You can save this tab as Personal to edit and correct it or add notes. All changes will be seen only by you. Learn more »
launch autoscroll
font size
0
reset
how to read this tab
guitar tuner
edit
Autoscroll
slow
fast
+/-
esc
set tempo
stop
Author
Unregistered
[Intro]
  D                          G                                   
e|-----------2------------------------------------|
b|--------3-----3---------------------------------|
g|-----2-----------2------------------0-----------|
d|--0-----------------0------------0-----0--------|
a|------------------------------2-----------2--0--|
E|---------------------------3--------------------|    
          
  C                             D                        
e|---------------------------------------2h3-------------|
b|------------------------------------3-------3----------|
g|--------0-----------0------------2-------------2-------|
d|-----2-----2-----0-----0------2-------------------2----|
a|--3-----------2----------------------------------------|
E|-------------------------------------------------------|
  
  D                          G                                   
e|-----------2------------------------------------|
b|--------3-----3---------------------------------|
g|-----2-----------2------------------0-----------|
d|--0-----------------0------------0-----0--------|
a|------------------------------2-----------2--0--|
E|---------------------------3--------------------|    
  
  C                             D                        
e|---------------------------------------2h3-------------|
b|------------------------------------3-------3----------|
g|--------0-----------0------------2-------------2-------|
d|-----2-----------0------------2-------------------2----|
a|--3-----------2--------0-------------------------------|
E|-------------------------------------------------------|

[Chorus 1]
  D                          G                                   
e|-----------2------------------------------------|
b|--------3-----3---------------------------------|
g|-----2-----------2------------------0-----------|
d|--0-----------------0------------0-----0--------|
a|------------------------------2-----------2--0--|
E|---------------------------3--------------------|    
  You've got her in your pocket        

  C                             D                        
e|---------------------------------------2h3-------------|
b|------------------------------------3-------3----------|
g|--------0-----------0------------2-------------2-------|
d|-----2-----2-----0-----0------2-------------------2----|
a|--3-----------2----------------------------------------|
E|-------------------------------------------------------|
  And    there's   no     way     out      now

[Chorus]
  D                          G                                   
e|-----------2------------------------------------|
b|--------3-----3---------------------------------|
g|-----2-----------2------------------0-----------|
d|--0-----------------0------------0-----0--------|
a|------------------------------2-----------2--0--|
E|---------------------------3--------------------|    
      Put it in the safe and lock it

  C                             D                        
e|------------------------|
b|------------------------|
g|--------0--------0------|
d|-----2--------0---------|
a|--3--------2--------0---|
E|------------------------|
cause it's home sweet home   


[Verse 1]
Am                                           G     D
        Nobody ever told you that it was the wrong way
Am                                            G   D
   To trick a woman, make her feel she did it her way
C                                      G                   
 And you'll be there if she ever feels blue                
C                                           F
 And you'll be there when she finds someone new
        A
What to do
Well you know

[Chorus 2]
You keep her in your pocket
Where there's no way out now
Put it in a safe a lock it
'cause it's home sweet home

[Verse 2]
The smile on your face made her think she had the right one
Then she thought she was sure
By the way you two could have fun
But now she might leave
Like she's threatened before
Grab hold of her fast
Before her feet leave the floor
And she's out the door
'cause you want

[Chorus 3]
To keep her in your pocket
Where there's no way out now
Put it in a safe a lock it
'cause it's home sweet home

[Verse 3]
And in your own mind
You know your're lucky just to know her
And in the beginning all you wanted was to show her
But now you're scared
You think she's running away
You search in your hand for something clever to say
Don't go away
'cause I want

[Chorus 4]
To keep you in my pocket
Where there's no way out now
Put it in a safe a lock it
'cause it's home sweet home

[Outro]
C    G     A
home sweet home

            
            
Suggest correction
Creating personal tab
Creating personal tab
You can edit any tab online and save it as your Personal.

You can edit, replace or remove any tab part or add personal notes – all changes will be seen only by you.

Personal tabs can be accessed anytime from any device, even offline.
Learn more »
comments
print report bad tab
10 comments total. Showing first comments.
+10 reply
csatkus 10 Apr 06, 2003 08:00 PM

The tab is pretty close, but the last part on the intro should be:

E:------------
B:----2^3-2---
G:---2-----2--
D:--2-------2-
A:-0----------
E:------------

And that little run should be:

E:-0-1--2-3---

instead of:

E:-3-0--2-3---

But other than that, great tab! Great song too!

0 reply
j0nmcc 210 Oct 21, 2003 08:00 PM

good tab

0 reply
~fRanGa~ 112 Nov 23, 2003 07:00 PM

Nice one

guest
Wanna post a correction for this tab? Suggest correction