Oops, an error
Loading. Please wait.

Youve Got Her In Your Pocket Tab

version 3
version 3

Whole song

Interactive

27,466 views 45 this week
4 commentsread comments
1 2 3 4 5
accurate
x 9
add to favorites
launch autoscroll
font size
0
reset
how to read this tab
guitar tuner
Tab Pro tools
  • play this tab
  • loop segment
  • change instrument
  • show fretboard
  • metronome
×
Best way to learn
"Youve Got Her In Your Pocket"
Autoscroll
slow
fast
+/-
esc
set tempo
stop
Contributor
-------------------------------------------------------------------------------
           THE WHITE STRIPES - You've got her in Your Pocket
-------------------------------------------------------------------------------
Tabbed by: Sean Cook
Email:mrseanrcook@hotmail.com (www.cookyonline.8m.com)

Tuning: Standard


Introduction/Chorus

  D             G             C       C/B     Am7

e|-------2-------------------------------------------------------------------|
B|-----3---3-----------------------------------------2h3-2-------------------|
G|---2-------2---------0-----------0-------0-------0-------------------------|
D|-0-----------0-----0---0---0---2---2---0---0---2---------------------------|
A|-----------------2-------2---3-------2-------0-----------------------------|
E|---------------3-----------------------------------------------------------|


Verse

  Am7  Am                                   G     D
       Nobody ever told you that it was the wrong way
       To trick a woman, make her feel ...  her way
e|-0----0------------------------------------3-----2h3p2-2-------------------|
B|-1----1------------------------------------3-----3-----3-------------------|
G|-0----2------------------------------------0-----2-----2-------------------|
D|-2----2------------------------------------0-----0-----0-------------------|
A|-0----0------------------------------------2-------------------------------|
E|-------------------------------------------3-------------------------------|

  C                                     G
  And you'll be there if she ever feels blue
e|-0-------------------------------------3-3---------3-----------------------|
B|-1-------------------------------------3-3---------3-----------------------|
G|-0-------------------------------------0-0---------0-----------------------|
D|-2-------------------------------------0-0---------0-----------------------|
A|-3-------------------------------------2-2---------2-----------------------|
E|---------------------------------------3-3-0-1-2-3-3-----------------------|

  C                                          F            A
  And you'll be there when she finds someone new, what to do...
e|-0------------------------------------------1------------0-----------------|
B|-1------------------------------------------1------------2-----------------|
G|-0------------------------------------------2------------2-----------------|
D|-2------------------------------------------3------------2-----------------|
A|-3------------------------------------------3------------0-----------------|
E|---------------------------------------------------------------------------|

Then back to the introduction/verse...simple as that!
My first attempt at a
tab, but I think it goes OK.

| /  slide up
| \  slide down
| h  hammer-on
| p  pull-off
| ~  vibrato
| +  harmonic
| x  Mute note
===============================================================================
comments
print report bad tab
4 comments total. Showing first comments.
0 reply
teasedkk wrote on November 14 2005, 02:39 pm

Nice work ;)

0 reply
acobjoe wrote on January 25 2006, 01:59 pm

Very Nice

-1 reply
evgom wrote on April 24 2006, 02:35 pm

good tab, but i think its part is:

e|-------2-------------------------------------------------------------------|
B|-----3---3-----------------------------------------2h3-2-0-----------------|
G|---2-------2---------0-----------0-------0-------0---------2---------------|
D|-0-----------0-----0---0---0---2---2---0---0---2---------------------------|
A|-----------------2-------2---3-------2-------0-----------------------------|
E|---------------3-----------------------------------------------------------|

I want to post or [tab]
guest
You may want to rate the tab now too:
select rating
Please do not post tabs as comments. Select "correction" instead!