Oops, an error
Loading. Please wait.

1517 Tab

version 1
version 1

Whole song

Interactive

1,490 views 6 this week
1 commentread comment
1 2 3 4 5
1 last vote to show rating
add to favorites
launch autoscroll
font size
0
reset
how to read this tab
guitar tuner
Autoscroll
slow
fast
+/-
esc
set tempo
stop
Help us to improve Ultimate-Guitar.com Take our survey!
×
Author
Difficulty
intermediate
This tab shows every change in chord (listen to song for strum pattern)

Intro
E|-9--12-5--4--2--4--2---9--12-5--4--2---2--4--5--4--2---2--4--5--4--2-|
B|-10-9--7--5--3--5--3---10-9--7--5--3---2--5--7--5--3---2--5--7--5--3-|
G|-9--9--6--4--2--4--2---9--9--6--4--2---2--4--6--4--2---2--4--6--4--2-|
D|-11-9--7--6--4--6--4---11-9--7--6--4---4--6--7--6--4---4--6--7--6--4-|
A|-9--7--5--4--2--4--2---9--7--5--4--2---4--4--5--4--2---4--4--5--4--2-|
E|---------------------------------------------------------------------|

1st Verse
E|-9--12-5--4--2--4--2---9--12-5--4--2--4---2--4--5--4--2---2--4--5--4--2-|
B|-10-9--7--5--3--5--3---10-9--7--5--3--5---2--5--7--5--3---2--5--7--5--3-|
G|-9--9--6--4--2--4--2---9--9--6--4--2--4---2--4--6--4--2---2--4--6--4--2-|
D|-11-9--7--6--4--6--4---11-9--7--6--4--6---4--6--7--6--4---4--6--7--6--4-|
A|-9--7--5--4--2--4--2---9--7--5--4--2--4---4--4--5--4--2---4--4--5--4--2-|
E|------------------------------------------------------------------------|

1st Chorus
E|-2--0--2--0---2--0--2--0---9--5--5--4--9--5--5--4--9--5--5--4--5--4--5--4-|
B|-2--0--2--0---2--0--2--0---7--7--5--5--7--7--5--5--7--7--5--5--5--5--5--5-|
G|-2--2--2--2---2--2--2--2---7--6--6--4--7--6--6--4--7--6--6--4--6--4--6--4-|
D|-0--0--0--0---0--0--0--0---7--7--7--6--7--7--7--6--7--7--7--6--7--6--7--6-|
A|---------------------------5--5--7--4--5--5--7--4--5--5--7--4--7--4--7--4-|
E|--------------------------------------------------------------------------|

2nd Verse
E|---2--4--5--4--2---2--4--5--4--2-|
B|---2--5--7--5--3---2--5--7--5--3-|
G|---2--4--6--4--2---2--4--6--4--2-|
D|---4--6--7--6--4---4--6--7--6--4-|
A|---4--4--5--4--2---4--4--5--4--2-|
E|---------------------------------|

2nd Chorus
E|-2--0--2--0--5---2--0--2--0--5--4---2--0--2--0---2--0--2--0-|
B|-2--0--2--0--7---2--0--2--0--7--5---2--0--2--0---2--0--2--0-|
G|-2--2--2--2--6---2--2--2--2--6--4---2--2--2--2---2--2--2--2-|
D|-0--0--0--0--7---0--0--0--0--7--6---0--0--0--0---0--0--0--0-|
A|-------------5---------------5--4---------------------------|
E|------------------------------------------------------------|

Bridge
E|-9--5--5--4--9--5--5--4--9--5--5--4--9--5--2-|
B|-7--7--5--5--7--7--5--5--7--7--5--5--7--7--2-|
G|-7--6--6--4--7--6--6--4--7--6--6--4--7--6--2-|
D|-7--7--7--6--7--7--7--6--7--7--7--6--7--7--4-|
A|-5--5--7--4--5--5--7--4--5--5--7--4--5--5--4-|
E|---------------------------------------------|

Intro
Suggest correction
Give kudos to tab author, rate the tab!
1 2 3 4 5
comments
print report bad tab
1 comment total.
0 reply
milchreismann 30 Nov 10, 2016 07:48 PM

This tab is awesome, thanks a lot!!!

guest
You may want to rate the tab now too:
select rating
Wanna post a correction for this tab? Suggest correction