Oops, an error
Loading. Please wait.

Golden Cage tab

version 1
version 1

Whole song

Interactive

31,821 views 54 this week
2 commentsread comments
1 2 3 4 5
x 12
add to favorites
×
Save as Personal and add changes to this tab that will be seen only by you. Learn more ›
×
You can save this tab as Personal to edit and correct it or add notes. All changes will be seen only by you. Learn more »
launch autoscroll
font size
0
reset
how to read this tab
guitar tuner
edit
Autoscroll
slow
fast
+/-
esc
set tempo
stop
Author
Difficulty
Unregistered
This is only the basic song structure, I don't this this is 100% accurate, but you can 
out the rest based on this. This was based on the previous tabs posted here.

Please post other tabs by the whitest boy alive, specifically: Fireworks, done with you, 
you and inflation; my guitar playing isn't good and I haven't been able to find guitar 
for these songs.

I hope this is useful for you.

Greets.

The Whitest Boy Alive
Golden Cage

Standard tuning

Intro (x2)
e|-----------------------------------------------------------|
B|-----------------------------------------------------------|
G|----------------9---9-11-----------------------------------|
D|---9-0-9-0-9------9--------9-0-9-0-9-----------------------|
A|--------------------------------------------9---7----------|
E|----------------------------------------777---5------------|

e|---------------------------------------------------------|
B|------------------------------------------8-8-8---8------|
G|----------------9---9-11------------------7-7-7---7------|
D|---9-0-9-0-9------9--------9-0-9-0-9------9-9-9---9------|
A|------------------------------------------7-7-7---7------|
E|---------------------------------------------------------|

Verse
e|----------------------|
B|--8-----7-------------|
G|--7-----7-----6-------|
D|--9-----7-----5-------|
A|--7-----5-----7-------|
E|--------------5-------|

Funky outro:
e|------------------------------------------------------|
B|------------------------------------------------------|
G|----9----------9--------------11----7------6-----7/9--|
D|---------9----------9--------------------------------9|
A|--7---0----0-7---0----7-0-7/9---0-5---0--4---0-5------|
E|-------7----------7-----------------------------------|

e|-----------------------------------------------------------|
B|-----------------------------------------------------------|
G|----9----------9--------------11----7------6---6-----6-7--4|
D|---------9----------9--------------------------------------|
A|--7---0----0-7---0----7-0-7/9---0-5---0--4---4---4---------|
E|-------7----------7----------------------------------------|

e|---------------------------------------------------------------------7~----10~----14~|
B|--------------------------------------------------------------7~-------9h11----12----|
G|----9----------9--------------11----7------6-----7---------------7h9-----------------|
D|---------9----------9-------------------------------------7h9------------------------|
A|--7---0----0-7---0----7-0-7/9---0-5---0--4---0-5---5---7~----------------------------|
E|-------7----------7------------------------------------------------------------------|

This city is no longer mine:
e|-----------------------------|
B|--8--8--8--8---7--7--7--10\8~|
G|--7--7--7--7---7--7--7--9-\7~|
D|--9--9--9--9---7--7--7--11\9~|
A|--7--7--7--7---5--5--5--9-\7~|
E|-----------------------------|

Verse end:
e|-----------------------------------------------------|
B|-----------------------------------------------------|
G|-----------------------------14-14~------------------|
D|---16~--16~--16~~---16~16~---16-16~------------------|
A|-----------------------------------------------------|
E|-----------------------------------------------------|

Intro x 1 then end with

e|-----------------------------------------------------------|
B|-----------------------------------------------------------|
G|----------------9---9-11-----------------------------------|
D|---9-0-9-0-9------9--------9-0-9-0-9-----------------------|
A|--------------------------------------------9---7----------|
E|----------------------------------------777---5------------|

e|-----------------------------------------|
B|-----------------------------------------|
G|----------------9---9-11---14---16~~-----|
D|---9-0-9-0-9------9----------------------|
A|-----------------------------------------|
E|-----------------------------------------|

            
            
Suggest correction
Creating personal tab
Creating personal tab
You can edit any tab online and save it as your Personal.

You can edit, replace or remove any tab part or add personal notes – all changes will be seen only by you.

Personal tabs can be accessed anytime from any device, even offline.
Learn more »
comments
print report bad tab
2 comments total.
+2 reply
itsmadeline 118 Jan 15, 2009 03:31 AM

Thanks for this, the outro sounds fantastic!
I personally think this is much easier for the intro:

e|-----------------------------------------------------------|
B|-----------------------------------------------------------|
G|----------------9-0-9-11-----------------------------------|
D|---9-0-9-0-9---------------9-0-9-0-9-----------------------|
A|--------------------------------------------9-0-7----------|
E|----------------------------------------777----------------|

The chords sound pretty good, unsure if they're 100%, but I certainly can't get closer lol. Good job!

0 reply
kellog 10 Mar 07, 2014 03:29 AM

This city is no longer mine:
e|-----------------------------|
B|--8--8--8--8---7--7--7--10\8~|
G|--7--7--7--7---7--7--7--9-\7~|
D|--9--9--9--9---7--7--7--11\9~|
A|--7--7--7--7---5--5--5--9-\7~|
E|-----------------------------|

The transition from the second to last chord to the last should be a slide. I'm not sure if I tabbed or labeled that right, but you know what I mean, hopefully.

guest
Wanna post a correction for this tab? Suggest correction