Oops, an error
Loading. Please wait.

Golden Cage tab

version 2
version 2

Whole song

Interactive

8,049 views 3 this week
no commentswrite comment
1 2 3 4 5
1 last vote to show rating
add to favorites
×
Save as Personal and add changes to this tab that will be seen only by you. Learn more ›
×
You can save this tab as Personal to edit and correct it or add notes. All changes will be seen only by you. Learn more »
launch autoscroll
font size
0
reset
how to read this tab
guitar tuner
edit
Autoscroll
slow
fast
+/-
esc
set tempo
stop
Difficulty
intermediate
Song: Golden Cage
Artist: The Whitest Boy Alive
Tuning: Standard EADGBe
Tabbed by: Matt Turner (mjturner1@gmail.com)
Thanks to ev dawg for that chord

Well, no offense to the other guy that posted a tab of this song, but his intro 
sounded like he was tabbing a different song altogether... 
Here is the intro, I am no good with chord identification so I haven't made progress
beyond this. Email me with any comments or help. Or to hate on me if you're the dude that
posted the other version...

Peace



| /  slide up
| \  slide down
| h  hammer-on
| p  pull-off
| ~  vibrato
| +  harmonic
| x  Mute note
| ^  bend

e|-----------------------------------------------------------|
B|-----------------------------------------------------------|
G|----------------9---9-11-----------------------------------|
D|---9-0-9-0-9------9--------9-0-9-0-9-----------------------|
A|--------------------------------------------9---7----------|
E|----------------------------------------777---5------------|


variation of that... if you'd prefer to play like this:

e|--------------------------------------------------------------------|
B|--------------------------------------------------------------------|
G|--------------------------------------------------------------------|
D|---9^-0-9^-0-9^~-----14----14-16------9^-0-9^-0-9^~-----------------|
A|------------------------14----------------------------------9---7---|
E|--------------------------------------------------------777---5-----|


then... play this chord slowly (listen to the song)

e|----------------------------------------------------------|
B|--8~-----7------------------------------------------------|
G|--7~-----7------------------------------------------------|
D|--6~-----6------------------------------------------------|
A|--7~-----7------------------------------------------------|
E|----------------------------------------------------------|

funknasty solo:
definately not right but it's a starting point for someone who's better at this
than me. listen to the song and get the timing

e|--------------------------------------------------------|
B|--------------------------------------------------------|
G|----9----------9----------11-------------11-------------|
D|---------9------------------------12-------------12-----|
A|--7---0----0-7---0--0-7/9----0-------0-9----0-----------|
E|-------7----------7------------10-------------10--------|


outro:
e|-----------------------------------------------------|
B|-----------------------------------------------------|
G|-----------------------------------------------------|
D|---14----14--16~~---s19~--s21------------------------|
A|------14---------------------------------------------|
E|-----------------------------------------------------|


that's all i really have thus far. hope it helped.

            
            
Suggest correction
Creating personal tab
Creating personal tab
You can edit any tab online and save it as your Personal.

You can edit, replace or remove any tab part or add personal notes – all changes will be seen only by you.

Personal tabs can be accessed anytime from any device, even offline.
Learn more »
Give kudos to tab author, rate the tab!
1 2 3 4 5
comments
print report bad tab
guest
Wanna post a correction for this tab? Suggest correction