Oops, an error
Loading. Please wait.

Gravity Tab

version 2
version 2

Whole song

2,490 views 30 this week
no commentswrite comment
1 2 3 4 5
excellent!
x 2
add to favorites
launch autoscroll
font size
0
reset
how to read this tab
guitar tuner
Tab Pro tools
  • play this tab
  • loop segment
  • change instrument
  • show fretboard
  • metronome
Autoscroll
slow
fast
+/-
esc
set tempo
stop
Contributor
The Whitest Boy Alive - Gravity

By Aldo Alain




  00:11
|------------------------------------------------------------------|
|-3-3-x-5-7---3-3-----3---3-3-x-5-----3-3-----3--5/7-3-x-5---------|
|-2-2-x-4-6---4-4-x-4-2---2-2-x-4-6---4-4-x-4-2--6/7-2-x-4-6-------|
|-4-4-x-6-7---5-5-x-5-4---4-4-x-6-7---5-5-x-5-4------4-x-6-7-------|
|------------------------------------------------------------------|
|------------------------------------------------------------------|


                                        00:34
|----------------------------------------------------|
|-3-3-x---3-3----3-x-5--------7-----10----12---------|
|-4-4-x-4-2-0h2--2-x-4-6------7-----11-11------------|
|-5-5-x-5-4------4-x-6-7--4/5-5-7/9--9---------------|
|----------------------------------------------------|
|----------------------------------------------------|


  00:55
|----------------------------------------------------|
|-x-x-x-x-12-12-x--10-10-x-8-8-x---x-----------------|
|-x-x-x-x-11-11-x--11-11-x-7-7-x---x-11-11-11-9-11---|
|-x-x-x-x-12-12-x--12-12-x-9-9---x-------------------|
|----------------------------------------------------|
|----------------------------------------------------|


                                          01:07
|----------------------------------------------------|
|-x-12-12-x---x-10-10-0-0-0-0-----x-0-0-0-0-0-7------|
|-x-11-11-x---x-11-11-6-6-6-6-7-9-x-6-6-0-7-9-7------|
|-x-12-12---x---12-12-------------------------7------|
|---------------------------------------------9------|
|---------------------------------------------7------|


  1:18             1:22
|-7-----5-----3-----2--------------------------------|
|-7-----7-----3-----3--------------------------------|
|-7-----6-----4-----2--------------------------------|
|-9-----7-----5-----4--------------------------------|
|----------------------------------------------------|
|----------------------------------------------------|


  1:29
|----------------------------------------------------|
|-7~~----------------------7~~-----------------------|
|-----9-7-6---6h7p6------------9-7-6--6h7p6----------|
|-------------------9-7-9-------------------9-7-9----|
|----------------------------------------------------|
|----------------------------------------------------|

|----------------------------------------------------|
|-10-10-------12-12-------10-10----------------------|
|-------11-11-------11-11-------11-9-11--------------|
|----------------------------------------------------|
|----------------------------------------------------|
|----------------------------------------------------|


                                          1:51
|-10p9-----------------------------------------------|
|------12-10-8-7--10---10---10---10--------12--------|
|--------------------7----6-------------11-----------|
|------------------------------7----9----------------|
|----------------------------------------------------|
|----------------------------------------------------|


 02:02                          2:10
|-7-----5-----3-----2-----7------5-------------------|
|-7-----7-----3-----3-----7------7-------------------|
|-7-----6-----4-----2-----7------6-------------------|
|-9-----7-----5-----4-----9------7-------------------|
|----------------------------------------------------|
|----------------------------------------------------|


02:25                          2:33
|-7-----5-----3-----2-----7------5-------------------|
|-7-----7-----3-----3-----7------7-------------------|
|-7-----6-----4-----2-----7------6-------------------|
|-9-----7-----5-----4-----9------7-------------------|
|----------------------------------------------------|
|----------------------------------------------------|


  2:37
|-------------------------7-------5------------------|
|-5---7---7-------10--5---7---8---5------------------|
|-6---7---7-----11----6---7---7---6------------------|
|-7---9---9---12------7---9---9---7------------------|
|---------9-10---------------------------------------|
|----------------------------------------------------|


                                        2:56
|--9--9--7-7--7-7---9--9-----9--9--7-7--7-7----------|
|-10-10--8-8--8-8--10-10----10-10--8-8--8-8----------|
|--9--9--7-7--7-7---9--9-----9--9--7-7--7-7----------|
|-11-11-------9-9--11-11----11-11-------9-9----------|
|---------------------------------------7------------|
|----------------------------------------------------|

|------------------------------------------------------------------|
|-3-3-x-5-7---3-3-----3---3-3-x-5-7---3-3-----3--5/7-3-x-5---------|
|-2-2-x-4-6---4-4-x-4-2---2-2-x-4-6---4-4-x-4-2--6/7-2-x-4-6-------|
|-4-4-x-6-7---5-5-x-5-4---4-4-x-6-7---5-5-x-5-4------4-x-6-7-------|
|------------------------------------------------------------------|
|------------------------------------------------------------------|


|---------------------------5----7------------------|
|-3-3-x---3--3-3-x-5-7---------7--------------------|
|-4-4-x-4-2--2-2-x-4-6----7-------------------------|
|-5-5-x-5-4--4-4-x-6-7--5---------------------------|
|---------------------------------------------------|
|---------------------------------------------------|

|---------------------------------------------------|
|--12-12-x--10-10-x-8-8-x---x-----------------------|
|--11-11-x--11-11-x-7-7-x---x-11-11-11-9-11---------|
|--12-12-x--12-12-x-9-9---x-------------------------|
|---------------------------------------------------|
|---------------------------------------------------|


|---------------------------------------------------|
|-x-12-12-x---x-10-10-0-0-0-0-----x-0-0-0-0-0-------|
|-x-11-11-x---x-11-11-6-6-6-6-7-9-x-6-6-0-7-9-------|
|-x-12-12---x---12-12-------------------------------|
|---------------------------------------------------|
|---------------------------------------------------|

|---------------------------------------------------|
|--12-12-x--10-10-x-8-8-x---x-----------------------|
|--11-11-x--11-11-x-7-7-x---x-11-11-11-9-11---------|
|--12-12-x--12-12-x-9-9---x-------------------------|
|---------------------------------------------------|
|---------------------------------------------------|


|---------------------------------------------------|
|-x-12-12-x---x-10-10-------------------------------|
|-x-11-11-x---x-11-11-6-6-6-6-7-9-x-6-6-6-----------|
|-x-12-12---x---12-12-------------------------------|
|---------------------------------------------------|
|---------------------------------------------------|
comments
We did not receive enough feedback on this tab! Please rate:
print report bad tab
1 2 3 4 5
I want to post or [tab]
guest
You may want to rate the tab now too:
select rating
Please do not post tabs as comments. Select "correction" instead!