Oops, an error
Loading. Please wait.

Get A New Daddy Tab

636 views 1 this week
no commentswrite comment
1 2 3 4 5
please rate
add to favorites
launch autoscroll
font size
0
reset
how to read this tab
guitar tuner
Tab Pro tools
  • play this tab
  • loop segment
  • change instrument
  • show fretboard
  • metronome
×
Best way to learn
"Get A New Daddy"
Autoscroll
slow
fast
+/-
esc
set tempo
stop
Difficulty
novice
Get A New Daddy Tab


INTRO/Chorus

Guitar
  A      C#       F#             D                A
E|----------------------------------------------------------------|
B|----------------------------------------------------------------|
G|----------------------------------------------------------------|
D|--------6-6-6-6-----------------7-7-7-7-7-7-7-7-----------------|
A|7-7-7-7-4-4-4-4-4-4-4-4-4-4-4-4-5-5-5-5-5-5-5-5-7-7-7-7-7-7-7-7-|
E|5-5-5-5---------2-2-2-2-2-2-2-2-----------------5-5-5-5-5-5-5-5-|

Bass
G|----------------------------------------------------------------|
D|----------------------------------------------------------------|
A|0------4------------------------0--2--4--5~~~~~0--4--2--0~~~~~~~|
E|----------------2-----------------------------------------------|

Bass Fill when entering verse
                                                         G|-------|
                                                         D|-------|
                                                         A|---024-|
                                                         E|------2|

Drums....Crash on the first High hat of the chorus
H|X-x-X-x-X-x-X-x-X-x-X-x-X-x-X-x-X-x-X-x-X-x-X-x-X-x-X-x-X-x-X-x-|
S|--------o---------------o---------------o---------------o-------|
B|o-------------o-----o-----------o-------------o-----o-----------|


Verse

Guitar
  A               F#              D               A
E|----------------------------------------------------------------|
B|----------------------------------------------------------------|
G|----------------------------------------------------------------|
D|--------------------------------7-7-7-7-7-7-7-7-----------------|
A|7-7-7-7-7-7-7-7-4-4-4-4-4-4-4-4-5-5-5-5-5-5-5-5-7-7-7-7-7-7-7-7-|
E|5-5-5-5-5-5-5-5-2-2-2-2-2-2-2-2-----------------5-5-5-5-5-5-5-5-|

Bass
G|----------------------------------------------------------------|
D|--------------------------------0-------------------------------|
A|0-----------------------------------------------0---------------|
E|----------------2-----------------------------------------------|

Bass Fill at the end of the second repeat
                                                         G|-------|
                                                         D|-------|
                                                         A|---024-|
                                                         E|------2|

Drums
H|X---X---X---X---X---X---X---X---X---X---X---X---X---X---X---X---|
S|--------o---------------o---------------o---------------o-------|
B|o-------------o-----o-----------o-------------o-----o-----------|

Drum fill into Chorus
                                         H|-----------------------|
                                         S|---------------o---o-o-|
                                         B|-----------------------|

Order:

Chorus 2x
Verse 4x
Chorus 4x
Verse 4x
Chorus 4x
Verse 2x
Chorus 7x


Lyrics:

Hey there kids I see you're feelin' blue
Parents push you 'round and tell you what to do

Dad makes you clean your room and go to bed
Instead of watchin' TV you have to do homework instead

And I know it makes you angry
And you're full of rage
Well let me tell you a secret I wish I knew when I was your age

Next time you're angry and you wanna fight back
Just tell your teacher Daddy likes to play with your sack


And you can get a new daddy
Get a New Daddy
Police'll take the old one away in a caddy

You can get a new daddy
Get a New Daddy
Stay up real late
Kick back and light up a fatty

You can Get a New Daddy
Get a New Daddy
In a couple of months you'll probably get a new daddy

Get a New Daddy
Get a New Daddy
In a couple of months you'll probably get a new daddy


Now for a little while your new daddy's cool
Buys you things and tries real hard to bond with you

Lets you eat candy and play video games
But your friends at school all think that he's kind of lame

Now you can't have your buddies makin' fun of your dad
And all in all this one was really not so bad

But you think you'd might like to try once more
Take naked Polaroid’s of yourself and leave them in his sock drawer


And you can get a new daddy
Get a New Daddy
Stay up real late
Kick back and light up a fatty

You can get a new daddy
Get a New Daddy
Police'll take the old one away in a caddy

You can Get a New Daddy
Get a New Daddy
In a couple of months you'll probably get a new daddy

Get a New Daddy
Get a New Daddy
In a couple of months you'll probably get a new daddy


Now your mom's wondering what's wrong with her
And why she keeps attracting men that are dirty pervs
She has a breakdown and cries and cries
And after a while she's institutionalized


You can get a new mommy
Get a New Mommy
New brother and sister
A New house, A new mommy

Get a new mommy
Get a New Mommy
A New brother, New sister
A New house, A new mommy

Get a New Mommy
Get a New Daddy
Stay up real late
Kick back and spark up a fatty

You can get a new daddy
Get a New Daddy
Police'll take the old one away in a caddy

You can Get a New Daddy
Get a New Mommy
A New brother and sister
A New house, A New Mommy

Get a New Mommy
Get a New Daddy
Stay up real late
Kick back and spark up a fatty

You can Get a New Daddy
Get a New Daddy
In a couple of months you'll probably get a new Daddy




I am 99.9 percent sure this is 100 percent accurate. Obviously if you were to play this 
live, you would want to improvise.
comments
We did not receive enough feedback on this tab! Please rate:
print report bad tab
1 2 3 4 5
I want to post or [tab]
guest
You may want to rate the tab now too:
select rating
Please do not post tabs as comments. Select "correction" instead!