Oops, an error
Loading. Please wait.

Anyway Anyhow Anywhere Tab

version 1
version 1

Whole song

Interactive

3,954 views 4 this week
no commentswrite comment
1 2 3 4 5
please rate
add to favorites
launch autoscroll
font size
0
reset
how to read this tab
guitar tuner
Tab Pro tools
  • play this tab
  • loop segment
  • change instrument
  • show fretboard
  • metronome
×
Best way to learn
"Anyway Anyhow Anywhere"
Autoscroll
slow
fast
+/-
esc
set tempo
stop
Contributor
-----------------------------------------------------------------------------
	        Anyway, Anywhere, Anyhow – The Who
-----------------------------------------------------------------------------

Tuning:Standard

Intro:   (for intro strum at the bridge to get chime & for easy rhythm)
     D          C          A

e|---2----------3----------0-----------------------------------------------|
B|---3----------5----------2-----------------------------------------------|
G|---2-(x16)----5-(x12)----2-----------------------------------------------|
D|---0----------5----------2-----------------------------------------------|
A|---x----------3----------0-----------------------------------------------|
E|---x----------3----------0-----------------------------------------------|
										  (Repeat x2)
G|-------------------------------------------------------------------------|
D|-------------------------------------------------------------------------|
A|---5---5-----------------------------------------------------------------|
E|--------------3----------5-----------------------------------------------|

                         G     A
  “I can go Any Way………………Way I Choose”
e|-----------------------3-----0-------------------------------------------|
B|-----------------------0-----2-------------------------------------------|
G|-----------------------0-----2-------------------------------------------|
D|-----------------------0-----2-------------------------------------------|
A|-----------------------2-----0-------------------------------------------|
E|-----------------------3-----0-------------------------------------------|

        D  D  D   D  D      G      A
“ I can Live anyhow,………………..Win or Lose”
e|------2--2--2---2--2------3-------0--------------------------------------|
B|------3--3--3---3--3------0-------2--------------------------------------|
G|------2--2--2---2--2------0-------2--------------------------------------|
D|------0--0--0---0--0------0-------2--------------------------------------|
A|------x--x--x---x--x------2-------0--------------------------------------|
E|------x--x--x---x--x------3-------0--------------------------------------|

G|---------------------------------------------------------------------|
D|--7-7-7--5-----------------------------------------------------------|
A|------------7--5-----------------------------------------------------|
E|--------------------------3--------5---------------------------------|

        D  D  D   D  D           G         A
“ I can go anywhere,………………..for something new”
e|------2--2--2---2--2-----------3-------------0----------------------------|
B|------3--3--3---3--3-----------0-------------2----------------------------|
G|------2--2--2---2--2-----------0-------------2----------------------------|
D|------0--0--0---0--0-----------0-------------2----------------------------|
A|------x--x--x---x--x-----------2-------------0----------------------------|
E|------x--x--x---x--x-----------3-------------0----------------------------|

       D    G       C       G      A
  “Anyway, Anyhow, Anywhere I Choose"
e|-----2----3-------3-------3------0-------------------------------------------|
B|-----3----0-------5-------3------2-------------------------------------------|
G|-----2----0-------5-------4------2-------------------------------------------|
D|-----0----0-------5-------5------2-------------------------------------------|
A|-----x----2-------3-------5------0-------------------------------------------|
E|-----x----3-------3-------3------0-------------------------------------------|

G|----------------------------------------------------------------------------|
D|----------------------------------------------------------------------------|
A|-----5------------3---------------------------------------------------------|
E|----------3----------------3-----5------------------------------------------|


   “nothing gets in my way………………………………………anywhere” (no guitar for recorded version)
         (live version is just)

           G/A
e|---------3/5------------------------------------------------------------|
B|---------3/5------------------------------------------------------------|
G|---------4/7-(x9)-------------------------------------------------------|
D|---------5/6------------------------------------------------------------|
A|---------5/6------------------------------------------------------------|
E|---------3/5------------------------------------------------------------|

   (repeat bassline until “Anyway, Anyhow Anywhere)
G|-------------------------------------------------------------------------|
D|-------------------------------------------------------------------------|
A|-------------------------------------------------------------------------|
E|-55555554----------------------------------------------------------------|

  (instrumental: (powerslides some effects used: tremolo, gain, & feedback)
  (morse code generated by flipping the pickup toggle switch)

    D   G    D        D       C    G     D    G    A       D      D    G A
e|--2---3----2-----|--2-------0----3-----2----3----0-|-----2------2----3/5--|
B|--3---0----3-----|--3-------1----0-----3----0----2-|----3-3----3-3---3/5--|
G|--2---0----2-----|--2-------0----0-----2----0----2-|---2---2--2---2--4/7--|
D|--0---0----0-----|--0-------2----0-----0----0----2-|--0------0-------5/6--|
A|--x---2----x-----|--x-------3----2-----x----2----0-|-----------------5/6--|
E|--x---3----x-----|--x-------x----3-----x----3----x-|-----------------3/5--|
 (listen to song         Use a slow tremolo here              (tremolo Off)
  For number of
  Repetitions)

     C    G   A
e|---3----3---0----------------------------------------------------------------|
B|---5----3---2----------------------------------------------------------------|
G|---5----4---2----------------------------------------------------------------|
D|---5----5---2----------------------------------------------------------------|
A|---3----5---0----------------------------------------------------------------|
E|---3----3---x----------------------------------------------------------------|

  “I can go Any Way………………Way I Choose”
e|-----------------------3-----0-------------------------------------------|
B|-----------------------0-----2-------------------------------------------|
G|-----------------------0-----2-------------------------------------------|
D|-----------------------0-----2-------------------------------------------|
A|-----------------------2-----0-------------------------------------------|
E|-----------------------3-----0-------------------------------------------|

        D  D  D   D  D      G      A
“ I can Live anyhow,………………..Win or Lose”
e|------2--2--2---2--2------3-------0--------------------------------------|
B|------3--3--3---3--3------0-------2--------------------------------------|
G|------2--2--2---2--2------0-------2--------------------------------------|
D|------0--0--0---0--0------0-------2--------------------------------------|
A|------x--x--x---x--x------2-------0--------------------------------------|
E|------x--x--x---x--x------3-------0--------------------------------------|

G|---------------------------------------------------------------------|
D|--7-7-7--5-----------------------------------------------------------|
A|------------7--5-----------------------------------------------------|
E|--------------------------3--------5---------------------------------|




        D  D  D   D  D           G         A

“ I can go anywhere,………………..for something new”
e|------2--2--2---2--2-----------3-------------0----------------------------|
B|------3--3--3---3--3-----------0-------------2----------------------------|
G|------2--2--2---2--2-----------0-------------2----------------------------|
D|------0--0--0---0--0-----------0-------------2----------------------------|
A|------x--x--x---x--x-----------2-------------0----------------------------|
E|------x--x--x---x--x-----------3-------------0----------------------------|

       D    G       C       G      A
  “Anyway, Anyhow, Anywhere I Choose”
e|-----2----3-------3-------3------0----------------------------------------|
B|-----3----0-------5-------3------2----------------------------------------|
G|-----2----0-------5-------4------2----------------------------------------|
D|-----0----0-------5-------5------2----------------------------------------|
A|-----x----2-------3-------5------0----------------------------------------|
E|-----x----3-------3-------3------0----------------------------------------|


G|--------------------------------------------------------------------------|
D|--------------------------------------------------------------------------|
A|-----5------------3-------------------------------------------------------|
E|----------3----------------3-----5----------------------------------------|

           G/A
e|---------3/5------------------------------------------------------------|
B|---------3/5------------------------------------------------------------|
G|---------4/7-(x9)-------------------------------------------------------|
D|---------5/6------------------------------------------------------------|
A|---------5/6------------------------------------------------------------|
E|---------3/5------------------------------------------------------------|


Outro: On last slide to A toggle the control Switch.

Well that’s it. That’s an awesome Song. Enjoy.
-Michael
comments
We did not receive enough feedback on this tab! Please rate:
print report bad tab
1 2 3 4 5
I want to post or [tab]
guest
You may want to rate the tab now too:
select rating
Please do not post tabs as comments. Select "correction" instead!