Oops, an error
Loading. Please wait.

Anyway Anyhow Anywhere Bass Tab

version 2
version 2

Whole song

Interactive

755 views 1 this week
no commentswrite comment
1 2 3 4 5
please rate
add to favorites
launch autoscroll
font size
0
reset
guitar tuner
Tab Pro tools
  • play this tab
  • loop segment
  • change instrument
  • show fretboard
  • metronome
×
Best way to learn
"Anyway Anyhow Anywhere"
Autoscroll
slow
fast
+/-
esc
set tempo
stop
Contributor
Anyway Anyhow Anywhere
The Who
Written by Roger Daltrey and Pete Townshend; released as a single 
(with "Daddy Rolling Stone" in the UK and "Anytime You Want Me" in the USA 
as B-sides)

Intro:
G|-----------------------------------------------|
D|-----------------------------------------------|
A|5-----------------------5----------------------|
E|-----------------------------------------------|



G|------------------------------------------------------|
D|------------------------------------------------------|
A|3-----------------------------------------------------|
E|---------------------------5--------------------------|



G|------------------------------------------------------|
D|------------------------------------------------------|
A|5--------------------------5--------------------------|
E|------------------------------------------------------|



G|-----------------------------------------------------------|
D|-----------------------------------------------------------|
A|3----------------------------------------------------------|
E|---------------------------5-------------------------------|
                                                      I   can

Verse:
G|------- ------- ------- -------|4------ ------- ------- -------|
D|-------------------------------|------------7------------------|
A|-------------------------------|-------------------------------|
E|-------------------------------|-------------------------------|
  go  a - ny- way,                                        I   can
                                 (way I       choose)

G|7------ ----7-- ------- -------|------- 7------ ------- -------|
D|--------------------9---7------|5-----------5---7---5----------|
A|----------------------------5--|------------------------7---7--|
E|-------------------------------|-------------------------------|
  live a- ny- how,                                        I   can
                                 (win or      lose)

G|7------ ----7-- ----7-- -------|----7-- ------- ------- -------|
D|-------------------------------|5-------5---7-------5----------|
A|-------------------------------|------------------------7---5--|
E|-------------------------------|-------------------------------|
  go  a - ny- where,                                      a - ny-
                             (for something   new)

G|------- ------- ------- -------|5------ ------- ------- -------|
D|----------------5--------------|----5-------7------------------|
A|5------------------------------|-------------------------------|
E|-------------------------------|-------------------------------|
  way,    a - ny- how,    a - ny- where I     choose


G|------- ------- ------- -------|
D|-------------------------------|
A|-------------------------------|
E|-------------------------------|
                              And

Verse:
G|7------ ----7-- ----5-- -------|------- ------- ------- -------|
D|------------------------7------|5-----------5---7-------5------|
A|----------------------------5--|----------------------------7--|
E|-------------------------------|-------------------------------|
  do  a - ny- thing,                                      I   can
                                 (right or    wrong)

G|7------ ----7-- ----7-- ----7--|----7-- ------- ------- -------|
D|-------------------------------|5-----------5---7-------5------|
A|-------------------------------|----------------------------7--|
E|-------------------------------|-------------------------------|
  talk a- ny- how,                                            Don't
                             (and get a   -   long)

G|------- ----7-- ----7-- ----7--|------- ------- ------- -------|
D|-------------------------------|5-----------7-------7----------|
A|5------------------------------|-------------------------------|
E|-------------------------------|-------------------------------|
  care a- ny- way,                                        a - ny-
                             (I   ne- ver     lose)

G|7------ ------- ------- -------|5------ ------- ------- -------|------- -------|
D|----------------5--------------|----5-------7------------------|------------5--|
A|-------------------------------|-------------------------------|---------------|
E|-------------------------------|-------------------------------|---------------|
  way,    a - ny- how,    a - ny- where I     choose


G|------- ------- ------- -------|------- ------- ------- -------|
D|7------------------------------|7---------------------------5--|
A|-------------------------------|-------------------------------|
E|-------------------------------|-------------------------------|



G|------- ------- ------- -------|------- ------- ------- -------|
D|7---------------------------5--|7---------------------------5--|
A|-------------------------------|-------------------------------|
E|-------------------------------|-------------------------------|
                                                          No- thing

Bridge:
G|------- ------- ------- -------|------- ------- ------- -------|
D|7---7---7---7---7---7---7---5--|7---7---7---7---7---7---7---5--|
A|-------------------------------|-------------------------------|
E|-------------------------------|-------------------------------|
  gets in my      way,        not e - ven locked  doors,  don't


G|------- ------- ------- -------|------- ------- ------- -------|
D|7---7---7---7---7---7---7---5--|7---7---7---7---7---7---7---5--|
A|-------------------------------|-------------------------------|
E|-------------------------------|-------------------------------|
  follow  the lines       that've laid    be- fore.
                              been

G|------- ------- ------- -------|------- ------- ------- -------|
D|7---7---7---7---7---7---7---5--|7---7---7---7---7---7---7---5--|
A|-------------------------------|-------------------------------|
E|-------------------------------|-------------------------------|
  I   get a - long        a - ny- way I       dare,       a - ny-


G|------- ------- ------- -------|------- ------- ------- -------|
D|7---7---7---7---7---7---7---5--|7---7---7---7---7---7---7---7--|
A|-------------------------------|-------------------------------|
E|-------------------------------|-------------------------------|
  way,    a - ny- how,    a - ny- where.


G|------- ------- ------- -------|------- ------- ------- -------|
D|7---7---7---7---7---7---7---7--|7---7---7---7---7---7---7---7--|
A|-------------------------------|-------------------------------|
E|-------------------------------|-------------------------------|



G|------- ------- ------- -------|------- ------- ------- -------|
D|7---7---7---7---7---7---7---7--|7---7---7---7---7---7---7---7--|
A|-------------------------------|-------------------------------|
E|-------------------------------|-------------------------------|


Break (solo):
G|------- ------- ------- -------|------- ------- ------- -------|
D|7---7---7---7---7---7---7---7--|7---7---7---7---7---7---7---7--|
A|-------------------------------|-------------------------------|
E|-------------------------------|-------------------------------|



G|------- ------- ------- -------|------- ------- ------- -------|
D|5---5---5---5---5---5---5---5--|5---5---5---5---5---5---5---5--|
A|-------------------------------|-------------------------------|
E|-------------------------------|-------------------------------|



G|------- ------- ------- -------|------- ------- ------- -------|
D|7---7---7---7---7---7---7---7--|5---5---5---5---5---5---5---5--|
A|-------------------------------|-------------------------------|
E|-------------------------------|-------------------------------|



G|------- ------- ------- -------|------- ------- ------- -------|
D|7---7---7---7---7---7---7---7--|7---7---7---7---7---7---7---7--|
A|-------------------------------|-------------------------------|
E|-------------------------------|-------------------------------|



G|------- ------- ------- -------|------- ------- ------- -------|
D|7---7---7---7---7---7---7---7--|7---7---7---7---7---7---7---7--|
A|-------------------------------|-------------------------------|
E|-------------------------------|-------------------------------|



G|------- ------- ------- -------|------- ------- ------- -------|
D|7---7---7---7---7---7---7---7--|7---7---7---7---7---7---7---7--|
A|-------------------------------|-------------------------------|
E|-------------------------------|-------------------------------|



G|------- ------- ------- -------|------- ------- ------- -------|
D|7---7---7---7---7---7---7---7--|7---7---7---7---7---7---7---7--|
A|-------------------------------|-------------------------------|
E|-------------------------------|-------------------------------|



G|------- ------- ------- -------|------- ------- ------- -------|
D|5---5---5---5---5---5---5---5--|7---7---7---7---7---7---7---7--|
A|-------------------------------|-------------------------------|
E|-------------------------------|-------------------------------|



G|------- ------- ------- -------|------- ------- ------- -------|
D|7---7---7---7---7---7---7---7--|7---7---7---7---7---7---7---7--|
A|-------------------------------|-------------------------------|
E|-------------------------------|-------------------------------|



G|------- ------- ------- -------|------- ------- ------- -------|
D|7---7---7---7---7---7---7---7--|7---7---7---7---7---7---7---7--|
A|-------------------------------|-------------------------------|
E|-------------------------------|-------------------------------|



G|------- ------- ------- -------|
D|----5-------7------------------|
A|-------------------------------|
E|8------------------------------|
                          I   can

Verse:
G|7------ ----7-- ----5-- -------|----7-- ------- ------- -------|
D|------------------------7---5--|5-----------5---7-------5------|
A|-------------------------------|----------------------------7--|
E|-------------------------------|-------------------------------|
  go  a - ny- way,                                        I   can
                                 (way I       choose)

G|7---7-- 7---7-- 7---7-- 7------|----7-- ------- ------- -------|
D|----------------------------4--|5-----------7------------------|
A|-------------------------------|------------------------7---7--|
E|-------------------------------|-------------------------------|
  live a- ny- how,                                        I   can
                                 (win or      lose)

G|7------ ----7-- ------- -------|----7-- ------- ------- -------|
D|----------------------------4--|5-----------5---7-------7------|
A|-------------------------------|-------------------------------|
E|-------------------------------|-------------------------------|
  do  a - ny- thing,                                      a - ny-
                             (for something   new)

G|------- ------- ------- -------|5------ ------- ------- ------- -------|
D|----------------5--------------|----5-------7--------------------------|
A|5------------------------------|---------------------------------------|
E|-------------------------------|---------------------------------------|
  way,    a - ny- how,    a - ny- where I     choose


G|------- ------- ------- -------|------- ------- ------- -------|
D|7------------------------------|7------------------------------|
A|-------------------------------|-------------------------------|
E|-------------------------------|-------------------------------|



G|------- ------- ------- -------|------- ------- ------- -------|
D|7---------------------------5--|7---------------------------5--|
A|-------------------------------|-------------------------------|
E|-------------------------------|-------------------------------|
                                                          Any-
                                  ooooooooooooooooooooooooooooooo
Outro:
G|------- ------- ------- -------|------- ------- ------- -------|
D|7---7---7---7---7---7---7---7--|7---7---7---7---7---7---7---7--|
A|-------------------------------|-------------------------------|
E|-------------------------------|-------------------------------|
  way,
  ooooooooooooooooooooooo         ooooooooooooooooooooooooooooooo

G|------- ------- ------- -------|------- ------- ------- -------|
D|7---7---7---7---7---7---7---5--|7---7---7---7---7---7---7---5--|
A|-------------------------------|-------------------------------|
E|-------------------------------|-------------------------------|
    anyway  I   choose, yeah,
  ooooooooooooooooooooooo         ooooooooooooooooooooooooooooooo

G|------- ------- ------- -------|------- ------- ------- -------|
D|7---7---7---7---7---7---7---5--|7---7---7---7---7---7---7---5--|
A|-------------------------------|-------------------------------|
E|-------------------------------|-------------------------------|
      anyway  I   wanna go,
  ooooooooooooooooooooooo         ooooooooooooooooooooooooooooooo

G|------- ------- ------- -------|------- ------- ------- -------|
D|7---7---7---7---7---7---7---5--|7---7---7---7---7---7---7---5--|
A|-------------------------------|-------------------------------|
E|-------------------------------|-------------------------------|
      I wanna go and do it myself,
  ooooooooooooooooooooooo         aaaaaaaaaaaaaaa

G|------- ------- ------- -------|------- ------- ------- -------|
D|7---7---7---7---7---7---7---5--|7---7---7---7---7---7---7---5--|
A|-------------------------------|-------------------------------|
E|-------------------------------|-------------------------------|
          do  my- self,                   do  my  self, yeah,
  aaaaaaaaaaaaaaa                 aaaaaaaaaaaaaaa

G|------- ------- ------- -------|------- ------- ------- -------|
D|7---7---7---7---7---7---7---5--|7---7---7---7---7---7---7---5--|
A|-------------------------------|-------------------------------|
E|-------------------------------|-------------------------------|
          anyway,                         way I       choose,
  aaaaaaa         aaaaaaa         aaaaaaa

G|------- ------- ------- -------|------- ------- ------- -------|
D|7---7---7---7---7---7---7---5--|7---7---7---7---7---7---7---5--|
A|-------------------------------|-------------------------------|
E|-------------------------------|-------------------------------|
      anyway I        choose,             yeah, yeah,
  aaaaaaaaaaaaaaa                 aaaaaaa         aaaaaaa

G|------- ------- ------- -------|------- ------- ------- -------|
D|7---7---7---7---7---7---7---5--|7---7---7---7---7---7---7---5--|
A|-------------------------------|-------------------------------|
E|-------------------------------|-------------------------------|
      I   never   lose the way I  choose,                the way I
  aaaaaaa         aaaaaaa         aaaaaaa         aaaaaaa

G|------- ------- ------- -------|------- ------- ------- -------|
D|7---7---7---7---7---7---7------|7------------------------------|
A|----------------------------7--|-------------------------------|
E|-------------------------------|-------------------------------|
  choose,               the way I choose.
  aaaaaaa         aaaaaaa         aaaaaaa

Please e-mail me for any corrections, or write a comment.
comments
We did not receive enough feedback on this tab! Please rate:
print report bad tab
1 2 3 4 5
I want to post or [tab]
guest
You may want to rate the tab now too:
select rating
Please do not post tabs as comments. Select "correction" instead!