Oops, an error
Loading. Please wait.

Armenia City In The Sky Tab

1,001 views 6 this week
no commentswrite comment
1 2 3 4 5
not so good
x 1
add to favorites
launch autoscroll
font size
0
reset
how to read this tab
guitar tuner
Tab Pro tools
  • play this tab
  • loop segment
  • change instrument
  • show fretboard
  • metronome
Autoscroll
slow
fast
+/-
esc
set tempo
stop
Contributor
Difficulty
intermediate
intro:
A7
e-5------|
b-5------|
g-6------| X7
d-5------|
a-7------|
e-5------|

e--------------------------------|
b--------------------------------|
g--------------------------------|
d--17~~~~~~~~~~~~~~~~~~~~~~~~~~--|
a--------------------------------|
e--------------------------------|

e---------------------|
b---------------------|
g---------------6666--|
d-66666666-8888-6666--|
a-66666666-8888-4444--|
e-44444444-6666-------|

e----------------------------------------------------------------|
b----------------------------------------------------------------|
g--------------------------------------------66666666-88888888---|
d-66666666-88888888888--666666666666666-8888-66666666-88888888---|
a-66666666-88888888888--666666666666666-8888-44444444-66666666---|
e-44444444-66666666666--444444444444444-6666---------------------|

e--------------------------------|
b--------------------------------|
g-------------6666--88888--------|
d-6666--8888--6666--8888---------|
a-6666--8888--4444--6666---------|
e-4444--6666---------------------|

e--------------------------------|
b--------------------------------|
g--------------------------------|
d----------------16sb-16sb-16sb--|
a--------------------------------|
e-pickscrape---------------------|

e--------------------------------|
b--------------------------------|
g--------------------------------| (lots of weird ambient stuff)
d--9-12-9-13sb-13sb-13sb-9-12-9--|
a--------------------------------|
e--------------------------------|

e------------------1-|
b------------------1-| end abruptly
g------------------2-|
d---11fb-11--------3-|
a-----------11-----3-|
e------------------1-|

repeat what is needed where it is needed.
comments
We did not receive enough feedback on this tab! Please rate:
print report bad tab
1 2 3 4 5
I want to post or [tab]
guest
You may want to rate the tab now too:
select rating
Please do not post tabs as comments. Select "correction" instead!