Oops, an error
Loading. Please wait.

Baba Oriley Bass Tab

version 1
version 1

Live

Whole song

Interactive

1,364 views 1 this week
no commentswrite comment
1 2 3 4 5
please rate
add to favorites
launch autoscroll
font size
0
reset
guitar tuner
Tab Pro tools
  • play this tab
  • loop segment
  • change instrument
  • show fretboard
  • metronome
×
Best way to learn
"Baba Oriley"
Autoscroll
slow
fast
+/-
esc
set tempo
stop
Contributor
Main Riff
G-----------------------|
D---------33------------|
A------------33--1------|
E-----------------------|

The Add on stuff (check for timing)

G------------------------------|
D---------------112233---------|
A-----------------------33---1-|
E------------------------------|
guitar kicks in

G-----------------------|
D---------3/24\3--------|
A-----------------33--1-|
E-----------------------|

right before petes singing

G-------------------------------|
D-----------------------5-------|
A----------------3------------3-|
E-------------------------------|
After Petes singing...

G------------------------------------|
D-----3/24\0-------112233------------|
A--------------------------3-333-3-1-|
E------------------------------------|


THERE ALL WASTED!!!!!

G----------------- Repeat till otro--------------------------|
D--------3/24/3-----------------------3---3------------------|
A----------------------------------------------3---3---1---1-|
E------------------------------------------------------------|


Outro

G----------------repeat till gets faster---------------|
D----------3/24\3-------3-3-3-3-3-3-3-3-3-3-3-3-3-3-3--|
A----------------------3-3-3-3-3-3-3-3-3-3-3-3-3-3-3-3-|
E------------------------------------------------------|

the fast outro

G------------------------------------|
D--------------------333333333333----|
A----------------------------------3-|
E------------------------------------|
comments
We did not receive enough feedback on this tab! Please rate:
print report bad tab
1 2 3 4 5
I want to post or [tab]
guest
You may want to rate the tab now too:
select rating
Please do not post tabs as comments. Select "correction" instead!