Oops, an error
Loading. Please wait.

Baba Oriley Tab

version 5
version 5

Interactive

Video

174,012 views 216 this week
33 commentsread comments
1 2 3 4 5
excellent!
x 85
add to favorites
launch autoscroll
font size
0
reset
how to read this tab
guitar tuner
Tab Pro tools
  • play this tab
  • loop segment
  • change instrument
  • show fretboard
  • metronome
×
Best way to learn
"Baba Oriley"
Autoscroll
slow
fast
+/-
esc
set tempo
stop
Contributor
Difficulty
intermediate
                         Baba O'Riley (Pete Townshend)
                                   The Who
                                 Who's Next?

Intro Sythesizer Tab for Guitar:
|-----------------------------------------------------------------|
|---------6-6-------------6-6-------------6-6-------------6-6-----|
|-----5-5-----5-5-----5-5-----5-5-----5-5-----5-5-----5-5-----5-5-|
|-3-3-------------3-3-------------3-3-------------3-3-------------|
|-----------------------------------------------------------------|
|-----------------------------------------------------------------|

Intro (Where the Guitar comes in) (01:48):
  F      C   A#  F      C   A#  F      C   A#  F      C   A#  F      C   A#
|--------------|--------------|--------------|--------------|--------------|
|--------------|--------------|--------------|--------------|--------------|
|--------5---3-|--------5---3-|--------5---3-|--------5---3-|--------5---3-|
|-3------5---3-|-3------5---3-|-3------5---3-|-3------5---3-|-3------5---3-|
|-3------3---1-|-3------3---1-|-3------3---1-|-3------3---1-|-3------3---1-|
|-1------------|-1------------|-1------------|-1------------|-1------------|

  C      C      C
|----------------------|
|----------------------|
|-5------5------5------|
|-5------5------5------|
|-3------3------3------|
|----------------------|

Chords:

C     F          C          A#
Don't Cry, Don't raise your eye
     F    A#      G
It's only teenage wasteland


F            C  A#   F                    C     A#
  Sally take my hand,  we'll travel south cross land
F                C    A#                 F         C   A#
Put out the fire, and don't look past my shoulder
F            C  A#   F                C   A#
  The exodus is here,  the happy ones are near
F                 C    A#                F     C   A#
Let's get together,  before we get much older

Guitar Solo:
|-13-----13-----------------------13-15-13-15b17-13-13-------|
|------------13--13h15--15-15--------------------------15-13-|
|------------------------------------------------------------|
|------------------------------------------------------------|
|------------------------------------------------------------|
|------------------------------------------------------------|

|-------------------------------------------------------------|
|-15-13-15-13-------------------------------------------------|
|----------------15b17-15b17-15b17-15b17-15b17-15b17-15b17-14-|
|-------------------------------------------------------------|
|-------------------------------------------------------------|
|-------------------------------------------------------------|

|----------------------------------|
|----------------------------------|
|-15b17--17--17--17--15-14---------|
|----------------------------------|
|----------------------------------|
|----------------------------------|

        F         C   A#
Teenage wasteland
                  F         C   A#
It's only teenage wasteland
        F         C   A#
Teenage wasteland Oh, yeah
    C   F         C   A#
Teenage wasteland

They're all wasted!
|-------------------------------------|
|-------------------------------------|
|-----------5------5------3------3----|
|-----------5------5------3------3----|
|-----------3------3------1------1----|
|-------------------------------------|

2nd Guitar Solo:
 
 Guitar I
|-12--13--15--12--13--15--12-13-15----12--13--15--12--13--15--12-13-15--|
|-----------------------------------------------------------------------|
|-----------------------------------------------------------------------|
|-----------------------------------------------------------------------|
|-----------------------------------------------------------------------|
|-----------------------------------------------------------------------|
|                                                                       |
|                                                                       |
|Guitar II                                                              |
| C                                   A#                                |
|-----------------------------------------------------------------------|
|-----------------------------------------------------------------------|
|-5-----------------------------------3---------------------------------|
|-5-----------------------------------3---------------------------------|
|-3-----------------------------------1---------------------------------|
|-----------------------------------------------------------------------|


 Guitar I
|-12--13--15--12--13--15--12-13-15----11--13--15--11--13--15--11-13-15--|
|-----------------------------------------------------------------------|
|-----------------------------------------------------------------------|
|-----------------------------------------------------------------------|
|-----------------------------------------------------------------------|
|-----------------------------------------------------------------------|
|                                                                       |
|                                                                       |
|Guitar II                                                              |
| F                                   D#                                |
|-----------------------------------------------------------------------|
|-6-----------------------------------4---------------------------------|
|-5-----------------------------------3---------------------------------|
|-3-----------------------------------1---------------------------------|
|-----------------------------------------------------------------------|
|-----------------------------------------------------------------------|


 Guitar I
|-12-13-12-13-12-13-12-13-12-13-12-13-12-13-12----|
|----------------------------------------------13-|
|-------------------------------------------------|
|-------------------------------------------------|
|-------------------------------------------------|
|-------------------------------------------------|
|                                                 |
|                                                 |
|Guitar II                                        |
| C                                               |
|-------------------------------------------------|
|-------------------------------------------------|
|-5-----------------------------------------------|
|-5-----------------------------------------------|
|-3-----------------------------------------------|
|-------------------------------------------------|


 Guitar I
|-12-13-12-13-12-13-12-13-12-13-12-13-15-12-13-13-|
|-------------------------------------------------|
|-------------------------------------------------|
|-------------------------------------------------|
|-------------------------------------------------|
|-------------------------------------------------|
|                                                 |
|                                                 |
|Guitar II                                        |
| A#                                              |
|-------------------------------------------------|
|-------------------------------------------------|
|-3-----------------------------------------------|
|-3-----------------------------------------------|
|-1-----------------------------------------------|
|-------------------------------------------------|


Guitar I
|-15-13-15-13-15-13-15-13-15-13-15-13-15-13-|
|-------------------------------------------|
|-------------------------------------------|
|-------------------------------------------|
|-------------------------------------------|
|-------------------------------------------|
|                                           |
|                                           |
|Guitar II                                  |
| F                                         |
|-------------------------------------------|
|-6-----------------------------------------|
|-5-----------------------------------------|
|-3-----------------------------------------|
|-------------------------------------------|
|-------------------------------------------|

 Guitar I
|-11-13-11-13-11-13-11-13-11-13-11-13-11-13-11-13-|
|-------------------------------------------------|
|-------------------------------------------------|
|-------------------------------------------------|
|-------------------------------------------------|
|-------------------------------------------------|
|                                                 |
|                                                 |
|Guitar II                                        |
| D#                                              |
|-------------------------------------------------|
|-4-----------------------------------------------|
|-3-----------------------------------------------|
|-1-----------------------------------------------|
|-------------------------------------------------|
|-------------------------------------------------|


 Guitar I
|-11\10-------------------------------------------------------------|
|-------13------11b13-11b13-11b13---13-13-13-13-13-13-13-13-15-11\--|
|-------------------------------------------------------------------|
|-------------------------------------------------------------------|
|-------------------------------------------------------------------|
|-------------------------------------------------------------------|
|                                                                   |
|                                                                   |
|Guitar II                                                          |
| F                         F                                  D#   |
|-------------------------------------------------------------------|
|-6-------------------------6----------------------------------4----|
|-5-------------------------5----------------------------------3----|
|-3-------------------------3----------------------------------1----|
|-------------------------------------------------------------------|
|-------------------------------------------------------------------|



Violen Solo Tab for Guitar (03:58):
|------------------------------10---------------------------------------|
|------------------10--13---------11--10--------------------------------|
|-----------------------------------------12----10----------------------|
|-10-------10--12------------------------------------13--12--13--12--10-|
|-----------------------------------------------------------------------|
|-----------------------------------------------------------------------|

|--------------------------------------------------------------------------|
|--------------------------------------------------------------------------|
|-10----10----12----------------------------------10----12-----------------|
|-----------------13---12--13---13--12---13--12-------------13--12--13--12-|
|--------------------------------------------------------------------------|
|--------------------------------------------------------------------------|

|-------------------------------------------------------------------------|
|-------------------------------------------------------------------------|
|----------------------------------------10-------------------------------|
|-12h13p12-10--------10---10h12-13----13-----13--12-13--12-10----------10-|
|-------------12-h13---------------------------------------------13-12----|
|-------------------------------------------------------------------------|

|-----------------------------------10-11--11-13-11--10-11--10-11-10-11-------|
|-----------10h11-13--13-13------13-------------------------------------13-11-|
|-10----10--------------------------------------------------------------------|
|-----------------------------------------------------------------------------|
|-----------------------------------------------------------------------------|
|-----------------------------------------------------------------------------|

|-11--10-11--10-11--10-11--10-11-10---------10h11----10-------------|
|-----------------------------------13-11---------13----11h13-10-10-|
|-------------------------------------------------------------------|
|-------------------------------------------------------------------|
|-------------------------------------------------------------------|
|-------------------------------------------------------------------|

|-10h11----10--------------10h11----10--------------10h11----10-------------|
|-------13----11h13-10-10--------13----11h13-10-10--------13----11h13-10-10-|
|---------------------------------------------------------------------------|
|---------------------------------------------------------------------------|
|---------------------------------------------------------------------------|
|---------------------------------------------------------------------------|

|-13---11-10-11p10----10-------------------------------------------|
|------------------13----13-11-13p11p10-11p10----10----------------|
|---------------------------------------------12----12-10-12p10----|
|---------------------------------------------------------------13-|
|------------------------------------------------------------------|
|------------------------------------------------------------------|

|-------------------------------------------------------------------|
|------------------------------------------10-11-13--------10-11-13-|
|---------------------------------------10--------------10----------|
|-13---12-13-12--13-12-13--12-13-12--10--------------10-------------|
|-------------------------------------------------------------------|
|-------------------------------------------------------------------|

|---------------------------------10b11-11-11-11-11-11-11--10-11----10-------|
|----------------------------------------------------------------13----11-13-|
|-------10-11-13--------10-11-13---------------------------------------------|
|----10--------------10------------------------------------------------------|
|-10--------------10---------------------------------------------------------|
|----------------------------------------------------------------------------|

|-13---13-13--11--10--11--10-11p10----11b13--13--13--11--10--11--10-11p10----|
|----------------------------------13-------------------------------------13-|
|----------------------------------------------------------------------------|
|----------------------------------------------------------------------------|
|----------------------------------------------------------------------------|
|----------------------------------------------------------------------------|

|-------------------------------------------------------------------------|
|-13--13--13--13-13-13-13-13-13-13-13-13-13-13-13-13-13-13-13-13-13-13-13-|
|-------------------------------------------------------------------------|
|-------------------------------------------------------------------------|
|-------------------------------------------------------------------------|
|-------------------------------------------------------------------------|


|-------------------------------------------------------------------------|
|-13-13-13-13-13-13-13-13-13-13-13-13-13-13-13-13-13-13-13-13-13-13-13--13|
|-------------------------------------------------------------------------|
|-------------------------------------------------------------------------|
|-------------------------------------------------------------------------|
|-------------------------------------------------------------------------|

Backup Guitar does this:
|-----------------------------------------------------------------|
|-----------------------------------------------------------------|
|-----------------------------------------------------------------|
|---3---3---3---3---3---3---3---3---3---3---3---3---3---3---3---3-|
|-3---3---3---3---3---3---3---3---3---3---3---3---3---3---3---3---|
|-----------------------------------------------------------------|

Outro(04:56):
|------------------------------------1--|
|------------------------------------1--|
|------------------------------------2--|
|--3-3-3-3-3-3-3-3-3-3-3-3-3-3-3-3-3-3--|
|-3-3-3-3-3-3-3-3--3-3-3-3-3-3-3-3-3-3--|
|------------------------------------1--|
comments
print report bad tab
33 comments total. Showing first comments.
+4 reply
gtrplayr1 wrote on June 8 2006, 02:06 pm

very good dude, the only thing (u probably know this already) there aren't any chords during the chorus. good job dude, keep 'em coming

+3 reply
JS5150 wrote on July 9 2006, 10:33 am

ya the only thing wrong is that during "don't cry, don't raise..." there aren't any chords, (as gtrplayr1 said) but other than that, great tab

+1 reply
Sash0 wrote on September 8 2006, 06:38 pm

this is easier played with capo on the first fret and you can keep up the intro part through the verses (getting better sound) - just move the first 2 fingers (pointer and middle finger) when you try to get to barre-chord-sounds...

I want to post or [tab]
guest
You may want to rate the tab now too:
select rating
Please do not post tabs as comments. Select "correction" instead!