Oops, an error
Loading. Please wait.

Bargain Bass Tab

version 1
version 1

Whole song

Interactive

5,198 views 6 this week
2 commentsread comments
1 2 3 4 5
not so good
x 3
add to favorites
launch autoscroll
font size
0
reset
guitar tuner
Tab Pro tools
  • play this tab
  • loop segment
  • change instrument
  • show fretboard
  • metronome
Autoscroll
slow
fast
+/-
esc
set tempo
stop
Difficulty
intermediate
Song: Bargain
Band: The Who
Album: Who’s Next
Year: 1971
Written by Pete Townshend
Tabbed by Lachlan
Submitted by BIG TOMMY P

Bass by John Entwistle
Standard tuning
I’m not going to tab the structure, you do it!
It’s easy, here are the riffs

G|-------------------------|
D|-------------------------|
A|----8------9-8---6-8-----|
E|6-6---6--6-----6---------|

G|--------------------------------------------|
D|-----------------------------------------6--|
A|-----8----4-6--6-4----6-----4-6-6---4-6-8---|
E|6--6--6-6-----------6---4-6------4-6--------|

G|---------------------------------------------|
D|---------------------------------------------|
A|----8-----4---4-4-6-----4-6-6-----—4-6-6-----|
E|6-6--6--6---4-------4-6-------4-6------------|

G|------------------------------|
D|4----6------------------------|
A|-----------6------------------|
E|------------------------------|

G|---------------------------------13-------------------|
D|---13-12----------13----13-13--13----13---13-11-10----|
A|---------------------13------------13--------------13-|
E|11----------------------------------------------------|

G|-------------------------6---------------|
D|-----------------------6---6----6--------|
A|11------11----11-----4-------4----4------|
E|-----11-----11---X-4---------------------|

G|-----8-7--8-8--8-----8--8-6-5----|
D|-----------8----8--8----------8--|
A|6--------------------------------|
E|---------------------------------|

G|-------------------------6---------|
D|6------6---------------6---6-------|
A|-----6---6-----6-------------4—4---|
E|-----------X-4---4-----------------|

G|--------------------------------------------|
D|--------------------------------------------|
A|8-----8---8-----8----8--8-8--8--------------|
E|----8---8-------------------------6—6—6—6-6-|

G|-----------------------------------------|
D|6H8-----------6H8-8-8--------------------|
A|-----------------------------------------|
E|----6-6-6-6-6---------6-6-6-6------------|

That’s pretty much it, listen to the recording to get the
Timing, great song. Rate it!
comments
We did not receive enough feedback on this tab! Please rate:
print report bad tab
1 2 3 4 5
2 comments total. show 1 bad comment
-1 reply
GALGOPOWER wrote on June 20 2013, 04:32 am

Ehh

I want to post or [tab]
guest
You may want to rate the tab now too:
select rating
Please do not post tabs as comments. Select "correction" instead!