Oops, an error
Loading. Please wait.

Boris The Spider Bass

version 1
version 1

Whole song

Interactive

14,260 views 18 this week
10 commentsread comments
1 2 3 4 5
x 31
add to favorites
launch autoscroll
font size
0
reset
guitar tuner
backing track
0:00
0:00
×
Best way to learn
"Boris The Spider"
Autoscroll
slow
fast
+/-
esc
set tempo
stop
Tuning
E A D G B E
Band: The Who
Song: Boris the Spider
Tabbed by: Lee Bradley (Lee.Bradley@btinternet.com)

I don't know the timing, and there's lots of sections to put

Here's the correct version of Boris the Spider, as far as I 
can make out, anyway...
The chorus bits by Fred (freddy@soonet.ca) were correct, but
the verse bits were slightly wrong.

Chorus

G|-----------------|-----------------|
D|-----------------|-----------------|
A|-5-4-3-2-1-------|-----------------|
E|-------------1---|-3-3-3-3-3-3-3-3-|

Verse

G|-----3-3---------|-----------------|-5-5-0-0-3-3-----|-----------------|
D|-0-0-----3-3-5-5-|-----------------|-------------3-3-|-5-5-5-5-5-5-5-5-|
A|-----------------|-3-3-3-3-3-3-3-3-|-----------------|-----------------|
E|-----------------|-----------------|-----------------|-----------------|

G|-5-5-0-0-3-3-----|-----------------|-5-5-0-0-3-3-----|-----------------|
D|-------------3-30|-----------------|-------------3-3-|-5-5-5-5-5-5-5-5-|
A|-----------------|-3-3-3-3-3-3-3-3-|-----------------|-----------------|
E|-----------------|-----------------|-----------------|-----------------|

Creepy Crawly bit

G|------------------------|
D|------------------------|
A|------------------------|
E|-3-1-3-1-3-1-3-1-3-etc..|

Please send any comments or suggestions 
to Lee.Bradley@btinternet.com
Suggest correction
comments
print report bad tab
10 comments total. Showing first comments.
0 reply
dreda lox 30 Jan 02, 2006 11:22 PM

fantastic tab definatly *****

0 reply
MEGABASS3000 10 May 03, 2006 03:38 PM

THIS WAS THE MOST CORRECT BASS TAB FOR BORIS THE SPIDER THAT I HAVE SEEN GJ!

0 reply
gibsonrocker917 37 Jun 27, 2006 11:49 AM

awesome

guest
You may want to rate the tab now too:
select rating
Wanna post a correction for this tab? Suggest correction