Oops, an error
Loading. Please wait.

Boris The Spider Bass Tab

version 3
version 3

Whole song

Interactive

860 views 6 this week
1 commentread comment
1 2 3 4 5
please rate
add to favorites
launch autoscroll
font size
0
reset
guitar tuner
Tab Pro tools
  • play this tab
  • loop segment
  • change instrument
  • show fretboard
  • metronome
×
Best way to learn
"Boris The Spider"
Autoscroll
slow
fast
+/-
esc
set tempo
stop
i think think this is it

G-----------------------------|
D-----------------------------|
A-5-4-3-2-1-------------------|
E-----------0-2-2-2-2-2-2-2-2-|

Verse

G--------------------------------5-5-0-0--------------------|
D-0-0-8-8-3-3-5--------------------------8-8-3--5-5-5-5-5-5-|
A----------------3-3-3-3-3-3-3-3----------------------------|
E-----------------------------------------------------------|

G-5-5-0-0------------------------5-5-0-0--------------------|
D---------8-8-3--2-----------------------8-8-3--5-5-5-5-5-5-|
A------------------3-3-3-3-3-3-3----------------------------|
E-----------------------------------------------------------|

Creepy Crawly bit

G------------------------|
D------------------------|
A------------------------|

E-3-1-3-1-3-1-3-1-3-etc..
comments
We did not receive enough feedback on this tab! Please rate:
print report bad tab
1 2 3 4 5
1 comment total.
0 reply
xxxxChrisTxxxx wrote on May 12 2016, 05:21 pm

The chorus ending is wrong, the verse jumps around the fret board needlessly and the creepy crawly bit is wrong too.



I want to post or [tab]
guest
You may want to rate the tab now too:
select rating
Please do not post tabs as comments. Select "correction" instead!