Oops, an error
Loading. Please wait.

Daddy Rolling Stone Bass Tab

747 views 6 this week
no commentswrite comment
1 2 3 4 5
please rate
add to favorites
launch autoscroll
font size
0
reset
guitar tuner
Tab Pro tools
  • play this tab
  • loop segment
  • change instrument
  • show fretboard
  • metronome
×
Best way to learn
"Daddy Rolling Stone"
Autoscroll
slow
fast
+/-
esc
set tempo
stop
Contributor
Daddy Rolling Stone
The Who
Written by Otis Blackwell; released as a B-side to "Anyway Anyhow Anywhere" 
in the UK.

Intro:
G|------- ------- ------- -------|------- ------- ------- -------|
D|-------------------------------|-------------------------------|
A|-------------------------------|-------------------------------|
E|-------------------------------|-------------------------------|
                                  (drums)


G|------- ------- ------- -------|------- ------- ------- -------|
D|--------5-------3-------3------|--------5-------3--------------|
A|------------5-------5-------5--|------------5-------5---3------|
E|3------------------------------|3---------------------------6--|
  Wah,                                    wah,    wah,    wah,


G|------- ------- ------- -------|------- ------- ------- -------|
D|--------5-------3-------3------|--------5-------3-------3---5--|
A|------------5-------5-------5--|------------5-------5----------|
E|3------------------------------|3------------------------------|
  wah.


G|------- ------- ------- 3------|------- ------- ------- -------|
D|--------5-------3---5-------5--|-------------------------------|
A|------------5------------------|3-------5---3------------------|
E|3------------------------------|----------------6---6---3---6--|
  Wah,                                    wah,    wah,    wah,


G|------- ------- ------- -------|------- ------- ------- -------|
D|--------5-------3-------3------|--------5-------3-------3------|
A|------------5-------5-------5--|------------5-------5-------5--|
E|3------------------------------|3------------------------------|
  wah.

Verse:
G|------- ------- ------- -------|------- ------- ------- -------|
D|5------------------------------|-------------------------------|
A|-------------------------------|-------------------------------|
E|-------------------------------|------------3------------------|
  Know    you think   you've had  lovin',
                                             (yeah!)

G|------- ------- ------- -------|------- ------- ------- -------|
D|-------------------------------|-------------------------------|
A|-------------------------------|-------------------------------|
E|3------------------------------|------------3------------------|
  know    you think   you've had  fun,
                                             (yeah!)

G|------- ------- ------- -------|------- ------- ------- -------|
D|-------------------------------|------------5------------------|
A|-------------------------------|-------------------------------|
E|3------------------------------|-------------------------------|
  Girl,   you ain't   have seen   nothing                 till
                                             (yeah!)

G|------- ------- ------- -------|------- ------- ------- -------|
D|-------------------------------|------------------------5---3--|
A|-------------------------------|-------------------------------|
E|3------------------------------|-------------------------------|
  I've                                            come    a-


G|------- ------- ------- -------|------- ------- ------- -------|
D|--------5-------3-------3------|--------5-------3-------3------|
A|------------5-------5-------5--|------------5-------5-------5--|
E|3------------------------------|3------------------------------|
  long.                                   I'm a   dad  -  dy,
         (Daddy   Rol  -  ling,           Daddy   Rolling     Stone

G|------- ------- ------- -------|------- ------- ------- -------|
D|--------5-------3-------3------|--------5-------3-------3------|
A|------------5-------5-------5--|------------5-------5-------5--|
E|3------------------------------|3------------------------------|
                                          I'm a   dad  -  dy,
          Daddy   Rol  -  ling,           Daddy   Rolling     Stone

G|------- ------- ------- -------|------- ------- ------- -------|
D|--------5-------3-------3------|--------5-------3-------3------|
A|------------5-------5-------5--|------------5-------5-------5--|
E|3------------------------------|3------------------------------|
                                          I'm a   daddy,
          Daddy   Rol  -  ling,           Daddy   Rolling     Stone

G|------- ------- ------- -------|------- ------- ------- -------|
D|--------5-------3-------3------|--------5-------3--------------|
A|------------5-------5-------5--|------------5-------5---3------|
E|3------------------------------|3---------------------------6--|
                                                      Yeah, I'm a
          Daddy   Rol  -  ling,           Daddy   Rolling)

G|------- ------- ------- -------|------- ------- ------- -------|
D|-------------------------------|-------------------------------|
A|--------5---5---5---5---5---5--|3------------------------------|
E|3------------------------------|-------------------------------|
  daddy,          daddy,              I'm Daddy   Rolling     Stone.
         (daddy,          daddy)

G|------- ------- ------- -------|------- ------- ------- -------|
D|--------5-------3---5----------|--------5---5-----------3------|
A|------------5-----------3---5--|----------------3---5-------5--|
E|3------------------------------|3------------------------------|

         (Daddy   Rolling     Stone)
Verse:
G|------- ------- ------- -------|------- ------- ------- -------|
D|--------5-------3-------3---5--|5-----------5------------------|
A|------------5-------5----------|------------------------3h5----|
E|3------------------------------|-------------------------------|
      I've got a  friend      Co  -   dy,
                      named                  (yeah!)

G|------- ------- ------- -------|------- ------- ------- -------|
D|--------5-------3--------------|5------------------------------|
A|------------5-------5---3------|-------------------------------|
E|3---------------------------6--|------------3------------------|
      He's got a girl named   Chris,                      Gonna
                                             (yeah!)

G|------- ------- ------- -------|------- ------- ------- -------|
D|--------5-------3-------3---5--|--------5-------3-------3------|
A|------------5-------5----------|------------5-------5-------5--|
E|3------------------------------|3------------------------------|
  steal that  girl,       though  twice my    size,      'cause I
                              he's           (yeah!)

G|------- ------- ------- -------|------- ------- ------- -------|
D|-------------------------------|-------------------------------|
A|-------------------------------|-------------------------------|
E|3------------------------------|-------------------------------|
  know    how to  do  it  like    this.   I'm a   dad  -  dy,


G|------- ------- ------- -------|------- ------- ------- -------|
D|--------5-------3-------3------|--------5-------3-------3------|
A|------------5-------5-------5--|------------5-------5-------5--|
E|3------------------------------|3------------------------------|
                                          I'm a   dad  -  dy,
         (Daddy   Rol  -  ling,           Daddy   Rolling     Stone

G|------- ------- ------- -------|------- ------- ------- -------|
D|--------5-------3-------3---5--|--------5-------3--------------|
A|------------5-------5----------|------------5-------5---3------|
E|3------------------------------|3---------------------------6--|
                                          I'm a   daddy,
          Daddy   Rol  -  ling,           Daddy   Rolling     Stone

G|------- ------- ------- -------|------- ------- ------- -------|
D|--------5-------3-------3---5--|--------5-------3-------3------|
A|------------5-------5----------|------------5-------5-------5--|
E|3------------------------------|3------------------------------|
                                                      Yeah, I'm a
          Daddy   Rol  -  ling,           Daddy   Rolling)

G|------- ------- ------- -------|------- ------- ------- -------|
D|-------------------------------|-------------------------------|
A|5---5-----------5---5----------|3------------------------------|
E|-------------------------------|-------------------------------|
  daddy,          daddy,              I'm Daddy   Rolling     Stone.
         (daddy,          daddy)

G|------- ------- ------- -------|------- ------- ------- -------|
D|--------5-------3-------3------|--------5-------3-------3---5--|
A|------------5-------5-------5--|------------5-------5----------|
E|3------------------------------|3------------------------------|
                                      I'm Daddy   Rolling     Stone!
         (Daddy   Rolling     Stone)
Break (solo):
G|------- ------- ------- -------|----3-- 5---3-- 6---5-- -------|
D|5---5---3----------------------|5-----------------------3---5--|
A|------------5-------3-------5--|-------------------------------|
E|-------------------------------|-------------------------------|
                                          wah,    wah,    wah,


G|------- ------- ------- -------|------- ------- ------- -------|
D|5---3-------5-----------3h5----|5---3-------5---3--------------|
A|--------5-------3h5------------|--------5-----------5---3------|
E|-------------------------------|----------------------------6--|
  wah.


G|------- ------- ------- 3------|------- ------- ------- -------|
D|--------5-------3---5-------5--|5-------3----------------------|
A|------------5------------------|------------5---4---3---5---3--|
E|3------------------------------|-------------------------------|
  Wah,                                    wah,    wah,    wah,


G|------- ------- ------- -------|------- ------- ------- -------|
D|--------5-------3-------3---5--|5-------5-------3--------------|
A|------------5-------5----------|------------5-------5---3------|
E|3------------------------------|----------------------------6--|
  wah.


G|------- ------- ------- -------|------- ------- ------- -------|
D|-------------------------------|-------------------------------|
A|5---5-----------5---5----------|3------------------------------|
E|-------------------------------|-------------------------------|
                                      I'm Daddy   Rolling     Stone.


G|------- ------- ------- -------|------- ------- ------- -------|
D|--------5-------3---5----------|--------5-------3-------3------|
A|------------5-----------3---5--|------------5-------5-------5--|
E|3------------------------------|3------------------------------|
                                          Daddy   Rolling     Stone,
         (Daddy   Rolling     Stone)

G|------- ------- ------- 3------|------- 3---5-- ------- 3------|
D|--------5-------3---5-------5--|5---------------3---5----------|
A|------------5------------------|-------------------------------|
E|3------------------------------|-------------------------------|
                                          I'm     Daddy Rolling
         (Daddy   Rolling     Stone)

G|------- ------- ------- -------|------- ------- ------- -------|
D|5-------5---3---------------3--|5-------5---3------------------|
A|----------------5---3---5------|----------------5---4---3------|
E|-------------------------------|----------------------------6--|
  Stone.
         (Daddy   Rolling     Stone)

G|------- ------- ------- -------|------- ------- ------- -------|
D|--------5-------3-------3------|--------5-------3-------3------|
A|------------5-------5-------5--|------------5-------5-------5--|
E|3------------------------------|3------------------------------|
                                                      I   said,
         (Daddy   Rolling     Stone)
Verse:
G|------- ------- ------- -------|------- ------- ------- -------|
D|--------5-------3-------3------|------------5-------5---3------|
A|------------5-------5-------5--|----------------------------5--|
E|3------------------------------|3------------------------------|
      I've got a  friend      Co  -   dy,
                      named                  (yeah!)

G|------- ------- ------- -------|------- ------- ------- -------|
D|--------5-------3--------------|------------5------------------|
A|------------5-------5---3------|-------------------------------|
E|3---------------------------6--|3------------------------------|
      He's got a girl named   Chris,                      Gonna
                                             (yeah!)

G|------- ------- ------- -------|------- ------- ----3-- -------|
D|--------5-----------3---5---3--|--------5---3---5-----------3--|
A|------------3---5--------------|-------------------------------|
E|3------------------------------|3------------------------------|
  steal that  girl,       though  twice my    size,      'cause I
                              he's           (yeah!)

G|------- ------- ------- -------|------- ------- ------- -------|
D|5------------------------------|-------------------------------|
A|-------------------------------|-------------------------------|
E|-------------------------------|-------------------------------|
  know    how to  do  it  like    this.   I'm a   dad  -  dy,


G|------- ------- ----3-- -------|------- ------- ------- -------|
D|----------------5-------3---5--|5-------5-------3--------------|
A|--------3---5------------------|------------5-------5---3------|
E|3------------------------------|----------------------------6--|
                                          I'm a   dad  -  dy,
         (Daddy   Rolling     Stone,      Daddy   Rol  -  ling,

G|------- ------- ------- -------|------- ------- ------- -------|
D|--------5-------3--------------|--------5-------3-------3---5--|
A|------------5-------5---3------|------------5-------5----------|
E|3---------------------------6--|3------------------------------|
                                          I'm a   daddy,
          Daddy   Rolling     Stone)

G|------- ------- ------- -------|------- ------- ------- -------|
D|-------------------------------|----------------------------3/5|
A|5---5-----------5---5----------|3------------------------------|
E|-------------------------------|-------------------------------|
                  Daddy,              I'm Daddy   Rolling     Stone,
         (daddy,          daddy)

G|------- ------- ------- -------|------- ------- ------- -------|
D|--------5-------3-------3------|--------5-------3-------3---5--|
A|------------5-------5-------5--|------------5-------5----------|
E|3------------------------------|3------------------------------|
                                      I'm Daddy   Rolling     Stone,
         (Daddy   Rolling     Stone)
Outro:
G|------- ------- ------- -------|------- 3------ ------- -------|
D|------------3------------------|------------5---3-------3---5--|
A|--------5-------5---4---3------|--------------------5----------|
E|3---------------------------6--|3------------------------------|
                                      He's coming down, Rolling Stone, yeah,
         (Daddy   Rolling     Stone)

G|------- 3---3-- ------- -------|------- 3---3-- ------- -------|
D|----------------3-------3---5--|----------------3-------3---5--|
A|--------------------5----------|--------------------5----------|
E|3------------------------------|3------------------------------|
                                      Long    hair,   long    nose,
         (Daddy   Rolling     Stone)

G|------- 3---3-- ------- -------|------- 3---3-- ------- -------|
D|----------------3-------3---5--|----------------3-------3---5--|
A|--------------------5----------|--------------------5----------|
E|3------------------------------|3------------------------------|
                                          Daddy Rol - ling    Stone,
         (Daddy   Rolling     Stone)


G|------- 3---3-- ------- -------|------- 3---3-- ------- -------|
D|----------------3-------3---5--|----------------3-------3---5--|
A|--------------------5----------|--------------------5----------|
E|3------------------------------|3------------------------------|

         (Daddy   Rolling     Stone)
fade out...

Please e-mail me for any corrections, or write a comment.
comments
We did not receive enough feedback on this tab! Please rate:
print report bad tab
1 2 3 4 5
I want to post or [tab]
guest
You may want to rate the tab now too:
select rating
Please do not post tabs as comments. Select "correction" instead!