Oops, an error
Loading. Please wait.

Do You Think Its Alright Bass Tab

version 1
version 1

Whole song

Interactive

497 views 1 this week
no commentswrite comment
1 2 3 4 5
please rate
add to favorites
launch autoscroll
font size
0
reset
guitar tuner
Tab Pro tools
  • play this tab
  • loop segment
  • change instrument
  • show fretboard
  • metronome
×
Best way to learn
"Do You Think Its Alright"
Autoscroll
slow
fast
+/-
esc
set tempo
stop
Contributor
Please Rate . . This one im not sure about but here it is
tuneing is G,D,A,E


|----------------------------------------------|
|3-----2----5-----0-----3----------------------|
|-----------------------------1----------------|
|-----------------------------------4--------3-|

|-0------0--------0----0--0-0---0--0--------0----0--0---|
|-----3-1-3--3-1-3----3----3----0--------1-3----3----3--|
|------------------------------------3------------------|
|-------------------------------------------------------|

|0---0--0--------0----0--0----------------0----0--0-|
|--0--------1-3----3----3--5-4-3-------3----3----3--|
|---------3----------------------3-4-5--------------|
|---------------------------------------------------|

      play 2X's
|0------0-------0----0--0---|
|---3-1-3--3-1-3----3----3--|
|---------------------------|
|---------------------------|
      x3                 x12
|---0----0--0|--------0|----|
|3----3----3-|3-3-3-3--|----|
|------------|---------|3---|
|------------|---------|----|
comments
We did not receive enough feedback on this tab! Please rate:
print report bad tab
1 2 3 4 5
I want to post or [tab]
guest
You may want to rate the tab now too:
select rating
Please do not post tabs as comments. Select "correction" instead!