Oops, an error
Loading. Please wait.

Eminence Front Tab

version 1
version 1

Intro

  • Intro solo only, studio version.

Whole song

Interactive

70 views 3 this week
no commentswrite comment
1 2 3 4 5
3 more votes to show rating
add to favorites
launch autoscroll
font size
0
reset
how to read this tab
guitar tuner
Autoscroll
slow
fast
+/-
esc
set tempo
stop
Help us to improve Ultimate-Guitar.com Take our survey!
×
Author
Difficulty
intermediate
About this tab version
Intro solo only, studio version. Was this info helpful? Yes No
transcribed by korwl
some of this shit looks goofy but it's as right as my ear can get it. try and really listen before passing 
judgment. to my knowledge this is the closest tab there is to what is actually being played. doing it mostly
from memory so minor idiosyncrasies in rhythm are going to be your responsibility -- these are just the notes!
4/4 standard tuning, etc

e|-----------------1--------------------------------------|
B|-4-4/6~~~--6r4b6-----4-1-----------------1--------------|
G|-x-x---------------------3-1---3-1---1h3~--3p1---1h3~~~-|
D|-x-x-------------------------3-----3-----------3--------|
A|--------------------------------------------------------|
E|--------------------------------------------------------|

e|--------------------------------------------------------|
B|---1p0-------1p0-------1p0------------------------------|
G|-------1p0-------1p0-------1~---------------------------|
D|-3---------3---------3--------3-------------------------|
A|--------------------------------------------------------|
E|--------------------------------------------------------|

e|--------------------------------------------------------|
B|---4---3------------------------------------------------|
G|-----------1-----3-1------------------------------------|
D|-3---3---3---3-1-----3-1--------------------------------|
A|-------------------------3-1-3-1------------------------|
E|---------------------------------4-1-1/-----------------|

e|--------------------------------------------------------|
B|------------------------------------13------------------|
G|-------------1---3/4\3p1~~----13b15----15r13~~----------|
D|-----3---1-3---3----------------------------------------|
A|-1h3---3------------------------------------------------| 
E|--------------------------------------------------------|
   ^ this hammer-on is basically a grace note, very fast!

                       /---fast!---\
e|-------13-------13---16-13------------------------------|
B|-16b18----16b18------------16-13----13-13---16-16---16--|
G|---------------------------------15-------x-------------|
D|--------------------------------------------------------|
A|--------------------------------------------------------|
E|--------------------------------------------------------|

e|--------------------------------13----------------------|
B|-16-16-16b18-16b18~~---------13----16-13----------------|
G|-----------------------15b17-------------15-13----------|
D|-----------------------------------------------15-13----|
A|--------------------------------------------------------|
E|--------------------------------------------------------|

e|--------------------------------------------------------|
B|----------------------13----15----13----15---13----13~~-| listen to album for proper timing
G|-15-13----------------13----15----13----15---13----13~~-|
D|-------15-------13-15----15----15----15----15---15------|
A|----------13-15-----------------------------------------|
E|--------------------------------------------------------|

e|------------12------------------------------------------|
B|-15----13---15b17-17r15-15~~----13----------------------| yes this sounds weird! play along with album.
G|-15----13--------------------13-------------------------|
D|----15--------------------------------------------------|
A|--------------------------------------------------------|
E|--------------------------------------------------------|

e|--------------------------------------------------------|
B|--------------------------------------------------------|
G|-15b17-13----15-13--------------------------------------| this might sound weird too, see above!
D|----------13-------13\8~~~------------------------------|
A|--------------------------------------------------------|
E|--------------------------------------------------------|

e|-------4p3~~--------------------------------------------|
B|---5b6----------4-x-------------------------------------| pete hits a dead note by mistake here, feel free
G|-5------------------3-1---3-1-0-------------------------| to replace x with 1
D|------------------------3-------1-3~~-------------------|
A|--------------------------------------------------------|
E|--------------------------------------------------------|

e|--------------------------------------------------------|
B|--------------------------------------------------------|
G|--------------------------------------------------------|
D|--------------------------------------------------------|
A|--------------------------------------------------------|
E|--------------------------------------------------------|
Suggest correction
Give kudos to tab author, rate the tab!
1 2 3 4 5
comments
print report bad tab
guest
You may want to rate the tab now too:
select rating
Wanna post a correction for this tab? Suggest correction