Oops, an error
Loading. Please wait.

Go To The Mirror Tab

version 1
version 1

Whole song

Interactive

3,526 views 18 this week
no commentswrite comment
1 2 3 4 5
excellent!
x 5
add to favorites
launch autoscroll
font size
0
reset
how to read this tab
guitar tuner
Tab Pro tools
  • play this tab
  • loop segment
  • change instrument
  • show fretboard
  • metronome
Autoscroll
slow
fast
+/-
esc
set tempo
stop
Contributor
Go to the Mirror 
The Who

Intro:
E      B  A x4

Verse 1:
   E              B       A   E       B    A
He seems to be completely unreceptive
    E                B       A        E       B    A
The tests I gave him show no sense at all
    Abm                             C#m    B
His eyes react to light the dials detect it
   A                               Bsus4  B   
He hears but cannot answer to your call


Chorus w/fill: 

| Ebmaj7   | Fsus4  F   | Fsus4  F   | G       |
  See me     Feel me      Touch me     Heal me
[guitar]
|----------|------------|------------|---------|
|----------|------------|------------|---------|
|----------|------------|------------|---------|
|--------8-|-7--------5-|-3----------|---------|
|-6--------|------------|----------3-|---------|
|----------|------------|------------|-3-------|

| Ebmaj7   | Fsus4  F   | Fsus4  F   |
  See me     Feel me      Touch me    
|----------|------------|------------|
|----------|------------|------------|
|----------|------------|------------|
|--------8-|-7--------5-|-3----------|
|-6--------|------------|----------3-|
|----------|------------|------------|

|Emsus4          |E              | B7sus4        | B               |
 heal me                                                      There is no chance...
|----------------|--------0------|-------5-5-5-5-|-----------------|
|----------------|--------0------|-------5-5-5-5-|-----------------|
|----------------|--------1------|-4-4---4-4-4-4-|-4-4-4-4-4-4-4-4-|
|2---------------|--------2------|-4-4---4-4-4-4-|-4-4-4-4-4-4-4-4-|
|2---------------|--------2-----0|-2-2-x-2-2-2-2-|-2-2-2-2-2-2-2-2-|
|0-0-0-0-0-0-0-0-|0-0-0-0-0-0-0--|---------------|-----------------|


Verse 2:
      E               B       A   E       B    A
There is no chance no untried operation.
E                  B       A         E       B    A
All hope lies with him and none with me
 Abm                             C#m    B
Imagine though the shock from isolation
        A                               Bsus4  B   
When he suddenly can hear and speak and see

Chorus:
Ebmaj7  Fsus4  F  Fsus4  F    G
See me,  feel me,  touch me,  heal me
Ebmaj7  Fsus4  F  Fsus4  F    Em      Bsus4   B
See me,  feel me,  touch me,  heal me 


Verse 3:
    E                B        A        E         B    A
His eyes can see his ears can hear his lips speak
E                B       A         E       B    A
All the time the needles flick and rock
   Abm                               C#m    B
No machine can give the kind of stimulation
A                          Bsus4  B   
Needed to remove his inner block


||:B5                     |                  :||
|| Go to the mirror, boy!                     ||
||------------------------|-------------------||
||------------------------|-------------------||
||.4--4--4---2------4-4---|-4---4-4-4-4-4-4--.||
||.4--4--4---2------4-4---|-4---4-4-4-4-4-4--.||
||-2--0--2---0------2-2---|-2---0-1-2---0-1---||
||------------------------|---2-------2-------||

Verse 4:
 
  E            B    A     E         B    A
I often wonder what he is feeling
E           B       A         E       B    A
Has he ever heard a word I've said?
Abm                           C#m    B
Look at him now in the mirror dreaming
        A                Bsus4  B   
What is happening in his head?


Bridge:
            A    B         C
Listning to you, I get the music
          A    B         E
Gazing at you, I get the heat
          A    B           C
Following you, I climb the mountain
         G       D       Bsus4 B2
I get excitement at your feet

             A    B         C
Right behind you, I see the millions
   A    B         E
On you, I see the glory
     A    B         C
From you, I get the opinions
     G    D         Bsus4 B2
From you, I get the story


Outro:

E       B    A
E       B    A
Abm                        C#m  B
  What is happening in his head
A                Bsus4  B        { E       B    A }x3 E
  Ooooh I wish I knew,    I wish I knew. 


 B2             Fsus4          Ebmaj7       Bsus4
|-2-|---|---|  |-1-|---|---|  |---|---|-3-|  |---|---|---|
|-2-|---|---|  |-1-|---|---|  |---|---|-3-|  |---|---|---|
|-2-|---|-4-|  |-1-|---|-3-|  |---|---|-3-|  |---|---|-4-|
|-2-|---|-4-|  |-1-|---|-3-|  |-1-|---|---|  |---|---|-4-|
|-2-|---|---|  |-1-|---|---|  |---|---|---|  |-2-|---|---|
|---|---|---|  |---|---|---|  |---|---|---|  |---|---|---|
comments
print report bad tab
I want to post or [tab]
guest
You may want to rate the tab now too:
select rating
Please do not post tabs as comments. Select "correction" instead!