Oops, an error
Loading. Please wait.

Goin Mobile Tab

version 2
version 2

Whole song

4,008 views 3 this week
no commentswrite comment
1 2 3 4 5
please rate
add to favorites
launch autoscroll
font size
0
reset
how to read this tab
guitar tuner
Tab Pro tools
  • play this tab
  • loop segment
  • change instrument
  • show fretboard
  • metronome
×
Best way to learn
"Goin Mobile"
Autoscroll
slow
fast
+/-
esc
set tempo
stop
Contributor
Difficulty
intermediate
                                               Goin' Mobile
                                                  The Who
                                                Who's Next?

Intro (Played on a 12-string acoustic):
|-----------------------------------------------------------------------------------------|
|--------------------------------------------------------10-10-9--9--7----9---10-10-9--7--|
|--------------------------------------------------------9--9--9--9--9----9---9--9--9--9--|
|--------------------------------------------------------9--9--9--9--9----9---9--9--9--9--|
|----7--7---------7---7--------7--7---------7---7-----------------------------------------|
|-7---------7--9---------7--9---------7--9---------7--9-----------------------------------|

|-----------------------------------------------------------------------------------------|
|--------------------------------------------------------10-10-9--9--7----9---10-10-9--7--|
|--------------------------------------------------------9--9--9--9--9----9---9--9--9--9--|
|--------------------------------------------------------9--9--9--9--9----9---9--9--9--9--|
|----7--7---------7---7--------7--7---------7---7-----------------------------------------|
|-7---------7--9---------7--9---------7--9---------7--9-----------------------------------|


(From "I'm going home, and when I wanna go home I'm going mobile")
|--------------------------------------------------------------------------------------|
|-----------------------------------------------------10-10-9--9--7----9---10-10-9--7--|
|-----------------------------------------------------9--9--9--9--9----9---9--9--9--9--|
|-----------------------------------------------------9--9--9--9--9----9---9--9--9--9--|
|-7--7---------7---7--------7--7---------7---7-----------------------------------------|
|--------7--9---------7--9---------7--9---------7--9-----------------------------------|

(From "Well I'm gonna find a home and we'll see how it goes going mobile")
|--------------------------------------------------------------------------------------|
|-----------------------------------------------------10-10-9--9--7----9---10-10-9--7--|
|-----------------------------------------------------9--9--9--9--9----9---9--9--9--9--|
|-----------------------------------------------------9--9--9--9--9----9---9--9--9--9--|
|-7--7---------7---7--------7--7---------7---7-----------------------------------------|
|--------7--9---------7--9---------7--9---------7--9-----------------------------------|

(From "Keep me moving")
|--------------------------------------------------------------------------------------------------|
|--------------------------------------------------------------------------------------------------|
|--------------------------------------------------------------------------------------------------|
|-2--------2----2----------2--------2----2----------2--------2----2----------2--------2----2-------|
|----2--4----------2--4-------2--4----------2--4-------2--4----------2--4-------2--4----------2--4-|
|--------------------------------------------------------------------------------------------------|


(From "I can pull up by the curb, I can make it on the road going mobile")
|--------------------------------------------------------------------------------------|
|-----------------------------------------------------10-10-9--9--7----9---10-10-9--7--|
|-----------------------------------------------------9--9--9--9--9----9---9--9--9--9--|
|-----------------------------------------------------9--9--9--9--9----9---9--9--9--9--|
|-7--7---------7---7--------7--7---------7---7-----------------------------------------|
|--------7--9---------7--9---------7--9---------7--9-----------------------------------|

(From "I can stop at any street inviting people that we meet goin' mobile")
|--------------------------------------------------------------------------------------|
|-----------------------------------------------------10-10-9--9--7----9---10-10-9--7--|
|-----------------------------------------------------9--9--9--9--9----9---9--9--9--9--|
|-----------------------------------------------------9--9--9--9--9----9---9--9--9--9--|
|-7--7---------7---7--------7--7---------7---7-----------------------------------------|
|--------7--9---------7--9---------7--9---------7--9-----------------------------------|

(From "Keep me moving")
|--------------------------------------------------------------------------------------------------|
|--------------------------------------------------------------------------------------------------|
|--------------------------------------------------------------------------------------------------|
|-2--------2----2----------2--------2----2----------2--------2----2----------2--------2----2-------|
|----2--4----------2--4-------2--4----------2--4-------2--4----------2--4-------2--4----------2--4-|
|--------------------------------------------------------------------------------------------------|


(Em7=022030)


G               D
 Out in the woods 

   Em         Em7
Or in the city

             C          Cmaj7  C
It's all the same to me

         D
When I'm driving the worlds my home...


When I'm Mobile!
|--------------------------------------------------------------------------------------------------|
|--------------------------------------------------------------------------------------------------|
|--------------------------------------------------------------------------------------------------|
|-2--------2----2----------2--------2----2----------2--------2----2----------2--------2----2-------|
|----2--4----------2--4-------2--4----------2--4-------2--4----------2--4-------2--4----------2--4-|
|--------------------------------------------------------------------------------------------------|

(From "Play the tape machine, make the toast and tea when I'm mobile")
|--------------------------------------------------------------------------------------|
|-----------------------------------------------------10-10-9--9--7----9---10-10-9--7--|
|-----------------------------------------------------9--9--9--9--9----9---9--9--9--9--|
|-----------------------------------------------------9--9--9--9--9----9---9--9--9--9--|
|-7--7---------7---7--------7--7---------7---7-----------------------------------------|
|--------7--9---------7--9---------7--9---------7--9-----------------------------------|

(From "Well, I can lay in bed with only highway ahead when I'm mobile")
|----------------------------------------------------------------------------------------|
|------------------------------------------------------10-10-7----10-10-7----10-10-7-----|
|------------------------------------------------------9--9--9----9--9--9----9--9--9-----|
|-2--2--------2----2--------2--2---------2----2--------9--9--9----9--9--9----9--9--9-----|
|-------2--4----------2--4--------2---4----------2--4------------------------------------|
|----------------------------------------------------------------------------------------|

(From "Keep me moving")
|--------------------------------------------------------------------------------------------------|
|--------------------------------------------------------------------------------------------------|
|--------------------------------------------------------------------------------------------------|
|-2--------2----2----------2--------2----2----------2--------2----2----------2--------2----2-------|
|----2--4----------2--4-------2--4----------2--4-------2--4----------2--4-------2--4----------2--4-|
|--------------------------------------------------------------------------------------------------|

(From "Keep me moving over 50")
|--------------------------------------------------------------------------------------------------|
|--------------------------------------------------------------------------------------------------|
|--------------------------------------------------------------------------------------------------|
|-2--------2----2----------2--------2----2----------2--------2----2----------2--------2----2-------|
|----2--4----------2--4-------2--4----------2--4-------2--4----------2--4-------2--4----------2--4-|
|--------------------------------------------------------------------------------------------------|

(From "Keep me grooving, just a hippie gypsy")
|--------------------------------------------------------------------------10-10--10-10--10-10--9--|
|--------------------------------------------------------------------------10-10--10-10--10-10--10-|
|--------------------------------------------------------------------------9--9---9--9---9--9---9--|
|-2--------2----2----------2--------2----2----------2--------2----2--------------------------------|
|----2--4----------2--4-------2--4----------2--4-------2--4----------2--4--------------------------|
|--------------------------------------------------------------------------------------------------|


Guitar Solo (An Envelope Follower Synthesizer is in use):
|-----------------------------------------------------------------------------------------|
|-10h12----8h10-8h10-----8h10-8h10----12r10p8------------------------------------------8--|
|---------------------------------------------9---7h9--9-9-9--7h9--9-9-7h9--9-9--7h9-9----|
|-----------------------------------------------------------------------------------------|
|-----------------------------------------------------------------------------------------|
|-----------------------------------------------------------------------------------------|

|-------------------------------------------------------------------------------------|
|-------------------------8b10-----10r8--8--------------------------------------------|
|-7h9-9-7h9-9--7-7---7h9-------9-----------7-9--9-7-9-------------------0-------------|
|--------------------------------------------------------0h2-2---0h2--2-----2---0-----|
|-------------------------------------------------------------------------------------|
|-----------------------------------------------------------------------------------3-|

 Guitar I (electric)
|--------------------------------------------------------------------------------------------------|
|-x-x-x-x----------------------8-----x-x---x-x---x-x---x-x-x-x-x-x-x-x---x-x-x-x-x-x-x-x-x-x-x-x-x-|
|-x-x-x-x-7h9--9-7h9--9-7h9--9----7--x-x---x-x---x-x---x-x-x-x-x-x-x-x---x-x-x-x-x-x-x-x-x-x-x-x-x-|
|-x-x-x-x----------------------------x-x-2-x-x-2-x-x-2-x-x-x-x-x-x-x-x-2-x-x-x-x-x-x-x-x-x-x-x-x-x-|
|-x-x-x-x----------------------------x-x---x-x---x-x---x-x-x-x-x-x-x-x---x-x-x-x-x-x-x-x-x-x-x-x-x-|
|--------------------------------------------------------------------------------------------------|
|Guitar II
|-----------------------------------------------------10-10--10-10-10-10-9---10-10--10-10-10-10-9--|
|-----------------------------------------------------10-10--10-10-10-10-10--10-10--10-10-10-10-10-|
|-----------------------------------------------------9--9---9--9--9--9--9---9--9---9--9--9--9--9--|
|--------------------------------------------------------------------------------------------------|
|--------------------------------------------------------------------------------------------------|
|--------------------------------------------------------------------------------------------------|

|----------------------------------------------------------------------------------------------|
|---x---x----x-----x------x----------x-x---------------------------------------------8------8--|
|---x---x----x-----x------x----------x-x----------7h9--9--7h9--9--7h9--9--9p7----7h9----7h9----|
|---x---x----x-----x------x-----2----x-x-----2-------------------------------------------------|
|---x---x--0-x-0---x------x----------x-x-------------------------------------------------------|
|-3---3----------3----0h3---0------------0-----------------------------------------------------|

|---------------------------------------------------------------|
|---------------------------------------------------------------|
|---------------------------------------------------------------|
|-----2-----2----2----2----2------2------2----------------------|
|-2h4-------------------------2h4----2h4------------------------|
|---------0----0----0----0------------------0---0--0-0-0--0-0-0-|

G         D
 I don't care about pollution

Em           Em7
  I'm an air-conditioned gypsy

C       Cmaj7
 That's my solution

D
  Watch the Police and the Taxman miss me, I'm Mobile

|-17r15-12--17r15-12--17--17--17--17--17-17-15-15-12-12------------------------------------|
|-------------------------------------------------------15-15-12-12------------------------|
|-------------------------------------------------------------------14-14-12-12------------|
|-------------------------------------------------------------------------------14-14-12---|
|------------------------------------------------------------------------------------------|
|------------------------------------------------------------------------------------------|

|--------------------------------------------------|
|--------------------------------------------------|
|--------------------------------------------------|
|-12h14-14-12h14-14-12h14-14-14--14-14-14-14-14-14-|
|--------------------------------------------------|
|--------------------------------------------------|

Outro:
|--------------------------------------------4------------|
|-5h7----7-7-7-5-5-------------------------5---5----------|
|------------------7-------1------------------------------|
|-----------------------2-----4---------------------------|
|---------------------------------------------------------|
|--------------------------------3b4--0-----------5\--0---|
comments
We did not receive enough feedback on this tab! Please rate:
print report bad tab
1 2 3 4 5
I want to post or [tab]
guest
You may want to rate the tab now too:
select rating
Please do not post tabs as comments. Select "correction" instead!