Oops, an error
Loading. Please wait.

Happy Jack Bass

version 1
version 1

Whole song

Interactive

by The Who
5,691 views 12 this week
3 commentsread comments
1 2 3 4 5
x 3
add to favorites
launch autoscroll
font size
0
reset
guitar tuner
Autoscroll
slow
fast
+/-
esc
set tempo
stop
Happy Jack by The Who
Tabbed by Jeff C.  jeffcamp98@home.com

NOTE:  The intro I cannot play, nor can i figure out the notes, 
but I know the first two notes are 0-3 on the D string (if anyone 
figures out, e-mail me and thanks in advance)

Verse:
G-------------------
D-----0----0-----0-2
A---0-----0----0----
E-------------------

Pre- Chorus
G------------------------------
D------------------------------
A---045-045-045-045-045-045-045
E------------------------------

Chorus w/ lyrics
G--0--------0-----
D-----------------
A-----0---------0-
E-----------------

Chorus con't (part without lyrics)

G-----------------------
D-----------------------
A---0--45454545----0---5 (gradual fall 1st time)
E-----------------------

Chorus con't 2

G---------
D--------0
A-----00--
E--3333---
and then
G-----------------------
D-----------------------
A--00---00---00---00---0
E-----------------------

Here's how it goes:
Intro
Verse
Intro
Verse
Pre-Chorus
Chorus w/ lyrics
Verse
Chorus con't
Verse
Chorus con't
Chorus con't 2
Chorus w/ lyrics
Verse
Intro
Suggest correction
Give kudos to tab author, rate the tab!
1 2 3 4 5
comments
print report bad tab
3 comments total.
+2 reply
Zoso518 154 Jul 26, 2007 04:19 PM

I think this is how the inrto is played, its a little difficult but its not impossible.

G---------0---4----0-----|----
D-0---2-4-------2----4-0-|-0--
A------------------------|----
E------------------------|----

0 reply
jsk 10 May 19, 2013 04:26 AM

Gday been playin' this since the who first released the song and every bass player had to be able to atleast play the intro :)

G------------4-------------|----
D--------------7-5-4-------|----
A-------4-5----------7-5---|----
E-5---7--------------------|----

I think this sounds right and is relatively easy to play :)

0 reply
jsk 10 May 19, 2013 04:35 AM

This is the first time that I have done this disregaurd first my effort as I don't know how to remove it try this it is easy but then I have been playing it for about 47 years :)

G------------4-------------|----
D-------4-5----7-5-4-------|----
A-5---7-------------7-5----|----
E--------------------------|----

guest
Wanna post a correction for this tab? Suggest correction