Oops, an error
Loading. Please wait.

I Can See For Miles Bass Tab

version 2
version 2

Whole song

Interactive

1,487 views 6 this week
no commentswrite comment
1 2 3 4 5
please rate
add to favorites
launch autoscroll
font size
0
reset
guitar tuner
Tab Pro tools
  • play this tab
  • loop segment
  • change instrument
  • show fretboard
  • metronome
×
Best way to learn
"I Can See For Miles"
Autoscroll
slow
fast
+/-
esc
set tempo
stop
Contributor
-------------------------------------------------------------------------------
			    I Can See for Miles - Who
-------------------------------------------------------------------------------

Tabbed By : jaymerut
e-mail: jaymerut@gmail.com

**Before you ask any questions about the symbols about the tab scroll down to the bottom 
you will probably find out what your looking for.**

Tuning: Standard

Intro

  | Bass Fig.1        End Bass Fig.1 |
G||-----------------|----------------|----------------|
D||-----------------|----------------|----------------|
A||-7-7-7-7-7-7-7-7-|7-7-7-7-7-7-7-7-|7-7-7-7-7-7-7-7-|
E||-----------------|----------------|----------------|

G||-----------------|----------------|----------------|
D||-----------------|----------------|----------------|
A||-7-7-7-7-7-7-7-7-|7-7-7-7-7-7-7-7-|7-7-7-7-7-7-7-7-|
E||-----------------|----------------|----------------|


Verse (%)

Repeat Bass Fig.1 (4 times)

Chorus

G||-12h9--------7-9-9-9-9-|9---------------------|12---12-12-12-12-12-12-|
D||------9--7h9-----------|----11-11-11-11-11-11-|-----------------------|
A||-----------------------|----------------------|-----------------------|
E||-----------------------|----------------------|-----------------------|

G||-12-12-12-12-12-12-12-12-|12-12-12-12-12-12-12-12-|12h9----------7-|
D||-------------------------|------------------------|-----12-9\7h9---|
A||-------------------------|------------------------|----------------|
E||-------------------------|------------------------|----------------|

G||-9-----------------|---------------------|-----------------------|
D||-------------------|---------------------|-----------------------|
A||------7--7-----7---|7-----7--7------7----|7-----7---7-------7----|
E||----0------0-0---0-|---0-------0-0-----0-|---0--------0--0-----0-|

G||-------------------------|
D||-------------------------|
A||-7------7---7-------7----|
E||-----0--------0--0-----0-|

Verse (To Coda)

                                      |    Second time with Bass Fill 1    |
G||*-----------------|----------------|----------------|-------------------|
D||*-----------------|--------7-------|----------------|-------------------|
A||*-----7-7-7-7-7-7-|7-7-7-7-----7-7-|----7-7-7-7-7-7-|-7-7-7-7-7-7-7-----|
E||*-0---------------|----------------|0---------------|---------------0-0-|

G||-----------------|------------------|---------------------------------|
D||-----------------|------------------|---------------------------------|
A||-----7-7-7-7-7-7-|7-7-7-7-7-7-7-----|----7-7-7-7-7-7-7-7-7-7-7-7--7-7-|
E||-0---------------|--------------0-0-|0--------------------------------|

Pre-Chorus

G||-----------------|-----------------|-----------------|
D||-7---------------|9----------------|7----------------|
A||-----------------|-----------------|-----------------|
E||-----------------|-----------------|-----------------|

G||-------------------|----------------|
D||-7h9---9-9-9-9-9-9-|9-9-9-9-9-9-9-7-|
A||-------------------|----------------|
E||-------------------|----------------|

Chorus

G||----6-9-11--8-11-|9--------7-6-------|----6-9-11--8-11-|9--------7-6-------|
D||-7---------------|-------------9-7-6-|-7---------------|-------------9-7-6-|
A||-----------------|-------------------|-----------------|-------------------|
E||-----------------|-------------------|-----------------|-------------------|

G||----6-9-11--8-11-|9--------7-6-------|---------------|---------------|
D||-7---------------|-------------9-7-6-|---------------|---------------|
A||-----------------|-------------------|7--7-7-7-7-7-7-|7--7-7-7-7-7-7-|
E||-----------------|-------------------|---------------|---------------|

G||----------------|-----------------|9--------------------|
D||----------------|-----------------|---------------------|
A||-7--7-7-7-7-7-7-|7--7-7-7-7-7-----|------7--7------7----|
E||----------------|-------------0-0-|---0-------0-0-----0-|

                          _______________________________________
                         |1.                                     |
G||-9--------------------|9--------------------|----------------*|
D||----------------------|---------------------|----------------*|
A||-------7--7------7----|------7--7------7----|7-7-7-7-7-7-7-7-*|
E||----0-------0-0-----0-|---0-------0-0-----0-|----------------*|

   ____________________
  |2.
G||-----------------|-----------------|
D||-----------------|-----------------|
A||-7-7-7-7-7-7-7-7-|-7-7-7-7-7-7-7-7-|
E||-----------------|-----------------|

Guitar Solo

                                       __________________________________
                                      |1.                                |
G||*-----------------|----------------|----------------|----------------*|
D||*-----------------|5-----7---------|9---------------|5-----7-----9---*|
A||*-7-7-7-7-7-7-7-7-|--7-7---7-7-7-7-|--7-7-7-7-7-7-7-|--7-7---7-7---7-*|
E||*-----------------|----------------|----------------|----------------*|

   ___________________
  |2.                                                        D.S al Coda
G||-----------------|----------------|----------------|----------------|
D||-----------------|----------------|----------------|----------------|
A||-7-7-7-7-7-7-7-7-|7-7-7-7-7-7-7-7-|7-7-7-7-7-7-7-7-|7-7-7-7-7-7-7-7-|
E||-----------------|----------------|----------------|----------------|

Verse (Coda)

G||-----------------|----------------|----------------|----------------|
D||-7---7-7-7-7-7-7-|7-7-7-7-7-7-7-7-|7---7-7-7-7-7-7-|7-7-7-7-7-7-7-7-|
A||-----------------|----------------|----------------|----------------|
E||-----------------|----------------|----------------|----------------|

G||-----------------|----------------|-------------|----------|
D||-7---7-7-7-7-7-7-|7-7-7-7-7-7-7-7-|7---77--7777-|777777--7-|
A||-----------------|----------------|-------------|----------|
E||-----------------|----------------|-------------|----------|

Pre-Chorus

G||/7---------------|9---------------|7---------------|-9-9-9-9-9-9-9---|
D||-----------------|----------------|----------------|-----------------|
A||-----------------|----------------|----------------|---------------7-|
E||-----------------|----------------|----------------|-----------------|

G||-----------------|
D||-----------------|
A||-7-7-7-7-7-7-7-0-|
E||-----------------|

Chorus

G||---------------|---6-9---------|--------------|---6-9---------|
D||----4-7----6-9-|7------7-6-7---|---4-7----6-9-|7------7-6-5-6-|
A||-5------7------|-------------0-|5------7------|---------------|
E||---------------|---------------|--------------|---------------|

G||------------------|-----------------|-----------------|-----------------|
D||-7---7-7-77777777-|7---7-7-77777777-|7---7-7-77777777-|7---7-7-77777777-|
A||---0--------------|--0--------------|--0--------------|--0--------------|
E||------------------|-----------------|-----------------|-----------------|

G||-----------------|-----------------|----------------|-------------9-----|
D||-7-777-7-7-777-7-|-7-7-7-7-7-7-7-7-|7-7-7-7-7-7-7-7-|7-----7--7-7-----7-|
A||-----------------|-----------------|----------------|---0---------------|
E||-----------------|-----------------|----------------|-------------------|

G||------------------|-----------------|-----------------|
D||-7-----7--7-7-7-7-|7-----7--7-7-7-7-|7-----7--7-7-7-7-|
A||----0-------------|---0-------------|---0-------------|
E||------------------|-----------------|-----------------|

                         Repeat and Fade
G||*-----------------|--6-9---6-9-6---*|
D||*-----4-7-----6-9-|7-----7-------7-*|
A||*-5-------7-7-----|----------------*|
E||*-----------------|----------------*|

**Bass Fill 1**

G||------------------9-|9-9-9-------------|
D||-------------9h11---|------9-------9-5-|
A||-7-7-7-7-7-7--------|------------------|
E||--------------------|------------------|

**D.S al Coda means to go back to the (%) sign and keep on playing until the (To Coda) 
then you go to the (Coda).**


| /  slide up
| \  slide down
| h  hammer-on
| p  pull-off
| ~  vibrato
| +  harmonic
| x  Mute note
===============================================================================
comments
We did not receive enough feedback on this tab! Please rate:
print report bad tab
1 2 3 4 5
I want to post or [tab]
guest
You may want to rate the tab now too:
select rating
Please do not post tabs as comments. Select "correction" instead!