Oops, an error
Loading. Please wait.

I Cant Explain Bass Tab

version 3
version 3

Whole song

Interactive

5,554 views 15 this week
no commentswrite comment
1 2 3 4 5
accurate
x 8
add to favorites
launch autoscroll
font size
0
reset
guitar tuner
Tab Pro tools
  • play this tab
  • loop segment
  • change instrument
  • show fretboard
  • metronome
×
Best way to learn
"I Cant Explain"
Autoscroll
slow
fast
+/-
esc
set tempo
stop
Contributor
-------------------------------------------------------------------------------
			     I Can't Explain - The Who
-------------------------------------------------------------------------------

Tabbed By : R8:31b
e-mail: 

Tuning: Standard

			                   X2
g|---------------------------------------|---------|---------|
d|---------------------------------------|---------|---------|
a|2/-7-55---77-34567-55—--77-567-55—--77-|7-55—--77|7-55—--77|
e|--------5-------------5-----------5----|-----5---|-----7---|

g|-----------------------------------------------------|
d|-----------------------------------------------------|
a|34567-55—--77-7-55—--77-34567-55----77-34567-55---x77|
e|---------5---------5-------------x5-------------x5---|

g|------------------|---------------------------|
d|------------------|--------------7-7--79-9976-|
a|7-55—--77-7-5-----|77-7--7-------------------9|
e|-----5--------7---|-------99-9--9-------------|
		          X2
g|----------------------------|--------------------|
d|----------------------------|--------------------|
a|7-55—--77-34567-55—--77-3456|7--75-5-5-5-----75-5|
e|-----5-------------5--------|------------5--5--7-|
                           X2	
g|-----------------|----------|-----|---------------------------|
d|-----------------|----------|-----|--------------7-7--79-9976-|
a|7--775-5-5-5—--77|-7-55—--77|7-5--|77-7--7-------------------9|
e|-------------5—--|------5---|----7|-------99-9--9-------------|

g|------------------------------------------------|
d|--------------------------------------------5---|
a|7-55—--77-567-55—--77-34567--7-5-5-5-5-----7-757|
e|-----5-----------5---------------------555------|

g|----------------------------------------|
d|------------------------------------5---|
a|7--7-5-5-5-5----77-76567-5-5-5-----7-757|
e|-------------5-----------------5--5-----|
                                      X2
g|-------------------------------|---------|--------|
d|-------------------------------|---------|--------|
a|7--775-5-5-5----77-567-55—--77-|7-55—--77|7-55—--7|
e|-------------5------------5----|-----5---|-----5--|
comments
print report bad tab
I want to post or [tab]
guest
You may want to rate the tab now too:
select rating
Please do not post tabs as comments. Select "correction" instead!