Oops, an error
Loading. Please wait.

Long Live Rock chords

version 2
version 2

Whole song

Interactive

by The Who
76 views 3 this week
no commentswrite comment
1 2 3 4 5
3 more votes to show rating
add to favorites
×
Save as Personal and add changes to this tab that will be seen only by you. Learn more ›
×
You can save this tab as Personal to edit and correct it or add notes. All changes will be seen only by you. Learn more »
launch autoscroll
font size
0
reset
transpose
0
reset
simplify chords
display chords
guitar tuner
edit
Autoscroll
slow
fast
+/-
esc
set tempo
stop
Strumming
There is no strumming pattern for this song yet. and get +5 IQ
The Who - Long Live Rock

A   x022xx
A5  x02255
A6  x042xx
D   xx023x
D6  xx043x
E   022xxx
E6  042xxx
F   x3321x
G   320022
C9  x30030
G/B x20030

[Intro]
  A  A6 A    A  A6 A       A5
 |----------------------------5-5-----------|
 |----------------------------5-5-----2-----|
:|-2------------2-------------2-2-----2-----|:
:|-2-2-4-2----2-2-4-2---------2-2-----2-----|:
 |-0-0-0-0----0-0-0-0---------0-0-----0-----|
 |------------------------------------------|

[Verse 1]
A        A6  A    A6    A     A6   A   A6
Down at the Astoria the scene was changing
A        A6  A    A6    A     A6   A   A6
Bingo and rock were pushing out x-rating

D  D6       D     D6      D     D6     D   D6
We were the first band to vomit at the bar

    A    A6  A     A6        A     A6   A   A6
And find the distance to the stage too far

E    E6        E       E6      E    E6    E   E6
Meanwhile it's getting late at ten o'clock


[Chorus 1]
F       G         D
Rock is dead they say
                A        A6  A    A6    A     A6   A   A6     A5   A5
Well long live rock

A   A6  A6  A A
Long live rock
A   A6  A6  A  A
I need it every night

D    D6    D    D6   D
Long live rock
D   D6       D    D6         A   A6 A  A6  A  A6  A
Come on and join the line

F                 D
Long live rock
              A  A6  A  A6  A  A6
Be it dead or alive

[Verse 2]
A        A6  A    A6    A     A6   A   A6
People walk in sideways pretending that they're leaving
A        A6  A    A6    A     A6   A   A6
We put on our make-up and work out all the lead-ins
D  D6       D     D6      D     D6     D   D6
Jack is in the alley selling tickets made in Hong Kong
A        A6  A    A6    A     A6   A   A6
Promoter's in the pay box wondering where the band's gone
E    E6        E       E6      E    E6    E   E6
Back in the pub the governor stops the clock

[Chorus 2]
F       G         D
Rock is dead they say
                A  A6 A    A  A6 A       A5
Long live rock

A   A6  A6  A A
Long live rock
A   A6  A6  A  A
I need it every night

D    D6    D    D6   D
Long live rock
D   D6       D    D6         A   A6 A  A6  A  A6  A
Come on and join the line

F                 D
Long live rock
              A  A6  A  A6  A  A6
Be it dead or alive

[Bridge]
E          D         A
Landslide, rocks are falling
E       D       A
Falling down around our very heads
E       D       A
We tried but you were yawning

E            D
Look again

[Bridge riff]
       C                   C            G/B                G/B
|-----0------------------0-----------------0-------------------0--------|
|---3---3--------------3---3------------3---3----------------3---3------|
|--0------0---0------0------0---0-----0--------0--0------0---------0---0|
|-----------0-----------------0------------------0-------------------0--|
|3----------------3----------------2--------------------2---------------|
|-----------------------------------------------------------------------|

C                               G/B
Rock is dead                    Rock is dead

A
Rock is dead

[Verse 3]
A        A6  A    A6    A     A6   A   A6
The place is really jumping to the Hiwatt amps
A        A6  A    A6    A     A6   A   A6
Til a twenty inch cymbal fell and cut the lamps
D  D6       D     D6      D     D6     D   D6
In the blackout they danced right into the aisle
    A    A6  A     A6        A     A6   A   A6
And as the doors fly open even the promoter smiles
E    E6        E       E6      E    E6    E   E6
Someone takes his pants off and the rafters knock

[Chorus 3]
F       G         D
Rock is dead they say
                A   A6  A6  A   A6
Long live rock

[Outro]
A   A6  A6  A A
Long live rock
A   A6  A6  A  A
Long live rock
D    D6    D     D6
Long live rock
A   A6  A6  A  A
Long live rock

F                 D
Long live rock

A  A6  A  A6  A  A6


A   A6  A6  A A
Long live rock
A   A6  A6  A  A
I need it every night
[Fill]
|------------------------------------------|
|------------------------------------------|
|-2-0-----------------------------2--------|
|-----4-2-0--------------------------------|
|-----------4-2-0------------4/5-----------|
|---------------------3-2--0---------------|


D    D6    D    D6   D
Long live rock
D   D6       D    D6         A   A6 A  A6  A  A6  A
Come on and join the line

F         D
Long live rock

              A
Be it dead or alive

[End riff]
|----------------------------------------0-------------------5---------|
|----------------------------------------2-------------------5---------|
|----------------------------------------2-------------------2---------|
|----------0-0-1-1---2---0---------------2-------------------2---------|
|0-0--4--4-------------------3---0-------0-------------------0---------|
|----------------------------------------------------------------------|




            
            
Suggest correction
Creating personal tab
Creating personal tab
You can edit any tab online and save it as your Personal.

You can edit, replace or remove any tab part or add personal notes – all changes will be seen only by you.

Personal tabs can be accessed anytime from any device, even offline.
Learn more »
Give kudos to tab author, rate the tab!
1 2 3 4 5
comments
print report bad tab
guest
You may want to rate the tab now too:
select rating
Wanna post a correction for this tab? Suggest correction