Oops, an error
Loading. Please wait.

Long Live Rock tab

version 2
version 2

Whole song

Interactive

by The Who
130 views 1 this week
no commentswrite comment
1 2 3 4 5
3 more votes to show rating
add to favorites
×
Save as Personal and add changes to this tab that will be seen only by you. Learn more ›
×
You can save this tab as Personal to edit and correct it or add notes. All changes will be seen only by you. Learn more »
launch autoscroll
font size
0
reset
how to read this tab
guitar tuner
edit
Autoscroll
slow
fast
+/-
esc
set tempo
stop
Author
Difficulty
LONG LIVE ROCK

As recorded by The Who
(From the 1974 Album ODDS & SODS)

Words and Music by Pete Townshend

Transcribed by Slowhand 


Gtr I (E A D G B E) - 'Pete Townshend - Electric Guitar'
Gtr II (E A D G B E) - 'Pete Townshend - Electric Guitar'


 Intro
  Q=132
  A                             D/A  A                               D/A
 4/4
  Gtr I
  PM------------|                     PM-------------|
  E E E E E E E E   Q.   E +Q   Q     E  E E E E E E E   Q.   E +Q   Q
|-----------------|----------------|-------------------|----------------||
|-----------------|-------------3--|-------------------|-------------3--||
|-----------------|-------------2--|-------------------|-------------2--||
|-2-2-4-2-2-2-4-2-|-2----2-(2)--4--|--2--2-4-2-2-2-4-2-|-2----2-(2)--4--||
|-0-0-0-0-0-0-0-0-|-0----0-(0)--0--|--0--0-0-0-0-0-0-0-|-0----0-(0)--0--||
|-----------------|----------------|-------------------|----------------||
|
| Gtr II
| W                 Q.   E +H        +W                  Q.   E +H
|-----------------|-5----5-(5)-----|-(5)---------------|-5----5-(5)-----||
|-----------------|-5----5-(5)-----|-(5)---------------|-5----5-(5)-----||
|-----------------|-2----2-(2)-----|-(2)---------------|-2----2-(2)-----||
|-----------------|-2----2-(2)-----|-(2)---------------|-2----2-(2)-----||
|-----------------|-0----0-(0)-----|-(0)---------------|-0----0-(0)-----||
|-----------------|----------------|-------------------|----------------||


 1st, 2nd & 3rd Verses
  $
  $$
  A
   PM--------------------------------------
   E E  E  E E E E E    E  E E E E E  E E
|--------------------|--------------------|
|--------------------|--------------------|
|--------------------|--------------------|
|--2-2--4--2-2-2-4-2-|--2--2-4-2-2-2--4-2-|
|--0-0--0--0-0-0-0-0-|--0--0-0-0-0-0--0-0-|
|--------------------|--------------------|
|
|    ~~~~~~~~~~~~~~~~~~~~~~~~~~~~~~
|  E E +H.             +H        E E  E E
|--------------------|--------------------|
|--------------------|--------------------|
|----2-(2)-----------|-(2)-------2--------|
|-/4-----------------|--------------------|
|--------------------|-------------3\-x-0-|
|--------------------|--------------------|


 ------------------------------------------|
   E       E   E E E E E E   E E E E E E E  E
|--------------------------|----------------------|
|--------------------------|----------------------|
|--------------------------|----------------------|
|--2-------2---4-2-2-2-4-2-|-2-2-4-2-2-2-4--2-----|
|--0-------0---0-0-0-0-0-0-|-0-0-0-0-0-0-0--0-----|
|--------------------------|----------------------|
|
|                                           ~~~~~~
|  E      +E   Q   H         H       Q   E  E
|--------------------------|---------------12-----|
|-12pb14r(12)\-------------|---------------12b14==|
|--------------------------|----------------------|
|--------------------------|----------------------|
|--------------------------|----------------------|
|--------------------------|----------------------|


  D
    PM--------------------------------------
    E  E E E E E E E     E   E E E E E E E
|--------------------|---------------------|
|--------------------|---------------------|
|---2--2-4-2-2-2-4-2-|---2---2-4-2-2-2-4-2-|
|---0--0-0-0-0-0-0-0-|---0---0-0-0-0-0-0-0-|
|--------------------|---------------------|
|--------------------|---------------------|
|
|   ~~~~~~~~~~~~~~~~~~~~~~~~~
|  +W                   +H.            Q
|-(12)---------------|-(12)----------------|
|-(12)---------------|-(12)r---------------|
|--------------------|---------------------|
|--------------------|---------------------|
|--------------------|---------------------|
|--------------------|---------------------|


 --------------------------------------------------|
   E   E   E   E   E   E E   E      E  E E E E E E E
|--------------------------------|---------------------|
|--------------------------------|---------------------|
|--------------------------------|---------------------|
|--2---2---4---2---2---2-4---2---|--2--2-4-2-2-2-4-2---|
|--0---0---0---0---0---0-0---0---|--0--0-0-0-0-0-0-0---|
|--------------------------------|---------------------|
|
|                                   ~~~
|  S E   E   E   S S S E S E   S   +W
|----9-------7-----5---3---------|---------------------|
|--------------------------------|---------------------|
|-/9-----7-------6---4-----5-----|---------------------|
|------------------------7-----7-|-(7)-----------------|
|--------------------------------|---------------------|
|--------------------------------|---------------------|


                                                    To Coda
                                                    To Coda
  E                                   F    G      D
  PM------------------------------|
  E E E E E E E E   E E E E E E E E   Q  E E +Q   Q    +W
|-----------------|-----------------|-------------2--|-(2)-----||
|-----------------|-----------------|------3-(3)--3--|-(3)-----||
|-----------------|-----------------|-2----0-(0)--2--|-(2)-----||
|-----------------|-----------------|-3----0-(0)--0--|-(0)-----||
|-2-2-4-2-2-2-4-2-|-2-2-4-2-2-2-4-2-|-3--------------|---------||
|-0-0-0-0-0-0-0-0-|-0-0-0-0-0-0-0-0-|-1----3-(3)-----|---------||


 Chorus
  A
  Gtr I
                                  ~~~~~~~~~~~~~
   Q        +E    E  +E   E      +Q       +E    E     +E   E  E     +E   E  E
|----------------12-(12)---------------|------------------12------------12-------|
|-12b14====(12)r---------12b14==(12)---|-(12)r-12b14-(12)----12b14-(12)----12b14-|
|--------------------------------------|-----------------------------------------|
|--------------------------------------|-----------------------------------------|
|--------------------------------------|-----------------------------------------|
|--------------------------------------|-----------------------------------------|
|
| Gtr II
|  E     E   E    E   E   E       E  E     Q.              E +Q          Q
|--------------------------------------|---5---------------5-(5)---------5-------|
|--------------------------------------|---5---------------5-(5)---------5-------|
|--------------------------------------|---2---------------2-(2)---------2-------|
|--2-----2---4----2---2---2-------4--2-|---2---------------2-(2)---------2-------|
|--0-----0---0----0---0---0-------0--0-|---0---------------0-(0)---------0-------|
|--------------------------------------|-----------------------------------------|


                                        |-3--|
   +E   E  E     +E   E  E  E  E    +E  S  S S  E E  E  E E S    +S
|------12-12----(12)-12-12-12-10-|-(10)-9h10p9------------------------|
|-(12)----12b14-(12)-------------|-------------10---------------------|
|--------------------------------|----------------9s=5------5pb6r(5)--|
|--------------------------------|----------------------7-5-----------|
|--------------------------------|------------------------------------|
|--------------------------------|------------------------------------|
|
|   E   E  E      E   E  E  E  E     Q.           E +Q    Q
|--------------------------------|---5------------5-(5)---5-----------|
|--------------------------------|---5------------5-(5)---5-----------|
|--------------------------------|---2------------2-(2)---2-----------|
|---2---2--4------2---2--2--4--2-|---2------------2-(2)---2-----------|
|---0---0--0------0---0--0--0--0-|---0------------0-(0)---0-----------|
|--------------------------------|------------------------------------|


                                      ~~
  +Q      E E +E      E E     E       Q.     E E E E     E
|-----------------------------------|--------5-----------------|
|-----------5-(5)b5.5---5b5.5-5b5.5-|--------5-----5b5.5-5b5.5-|
|-(5)b6-----5-(5)b5.5---5b5.5-5b5.5-|--------5-----5b5.5-5b5.5-|
|---------7-----------7-------------|-7----------7-------------|
|-----------------------------------|--------------------------|
|-----------------------------------|--------------------------|
|
|  PM-----------------------------------------------------------
|  E    E E E  E      E E     E       E  E E E E E E     E
|-----------------------------------|--------------------------|
|-----------------------------------|--------------------------|
|-----------------------------------|--------------------------|
|--2----2-4-2--2------2-4-----2-----|-2--2-4-2-2-2-4-----2-----|
|--0----0-0-0--0------0-0-----0-----|-0--0-0-0-0-0-0-----0-----|
|-----------------------------------|--------------------------|


  Q.     E E E E     E       Q.     E E E E     E
|--------5-----------------|--------5-----------------|
|--------5-----5b5.5-5b5.5-|--------5-----5b5.5-5b5.5-|
|--------5-----5b5.5-5b5.5-|--------5-----5b5.5-5b5.5-|
|-7----------7-------------|-7----------7-------------|
|--------------------------|--------------------------|
|--------------------------|--------------------------|
|
|-----------------------------------------------|
| E  E E E E E E     E       E  E E E E E E     E
|--------------------------|--------------------------|
|--------------------------|--------------------------|
|--------------------------|--------------------------|
|-2--2-4-2-2-2-4-----2-----|-2--2-4-2-2-2-4-----2-----|
|-0--0-0-0-0-0-0-----0-----|-0--0-0-0-0-0-0-----0-----|
|--------------------------|--------------------------|


  D
                             ~
  Q.     E E E E     E       Q   E E E E E     E
|--------------------------|-------5-----------------|
|--------------5b5.5-5b5.5-|-------5-----5b5.5-5b5.5-|
|--------5-4---5b5.5-5b5.5-|-------------5b5.5-5b5.5-|
|-7----------7-------------|-----7-----7-------------|
|--------------------------|-5-----------------------|
|--------------------------|-------------------------|
|
| PM--------------------------------------------------
| E  E E E E E E     E       E E E E E E E     E
|--------------------------|-------------------------|
|--------------------------|-------------------------|
|-2--2-4-2-2-2-4-----2-----|-2-2-4-2-2-2-4-----2-----|
|-0--0-0-0-0-0-0-----0-----|-0-0-0-0-0-0-0-----0-----|
|--------------------------|-------------------------|
|--------------------------|-------------------------|


  A
  Q   E E E E E     E       E E E E E E E     E
|-------5-----------------|-------5-----------------|
|-------5-----5b5.5-5b5.5-|-------5-----5b5.5-5b5.5-|
|-------------5b5.5-5b5.5-|-------------5b5.5-5b5.5-|
|-7---------7-------------|-7---------7-------------|
|-----0-----0-------------|-----0-----0-------------|
|-------------------------|-------------------------|
|
|---------------------------------------------|
| E E E E E E E     E       E E E E E E E     E
|-------------------------|-------------------------|
|-------------------------|-------------------------|
|-------------------------|-------------------------|
|-2-2-4-2-2-2-4-----2-----|-2-2-4-2-2-2-4-----2-----|
|-0-0-0-0-0-0-0-----0-----|-0-0-0-0-0-0-0-----0-----|
|-------------------------|-------------------------|


  F           D                  D5
  W                +H     H      E E Q  H
|----------------|-------------|-------------|
|----------------|-------------|-3-----------|
|----------------|-------------|-2-----------|
|-7--------------|-(7)---------|-0-----------|
|----------------|-------------|-------------|
|----------------|-------------|-------------|
|
| Q.   E +Q   Q    +W            E E Q  H
|-------------2--|-(2)---------|-------------|
|-1----1-(1)--3--|-(3)---------|-3-----------|
|-2----2-(2)--2--|-(2)---------|-2-----------|
|-3----3-(3)--0--|-(0)---------|-0-----------|
|-3----3-(3)-----|-------------|-------------|
|-1----1-(1)-----|-------------|-------------|


  E S S E E E    +S   S S    +S  E
|---------------------5-------------|
|---------------------5-------------|
|-------2---4b6==(4)r---4pb6r(4)----|
|--------------------------------4--|
|---3h4---0-------------------------|
|-----------------------------------|
|
| PM-----------------------------|
| E E   E E E     E     E        E
|-----------------------------------|
|-----------------------------------|
|-----------------------------------|
|-2-2---4-2-2-----2-----4--------2--|
|-0-0---0-0-0-----0-----0--------0--|
|-----------------------------------|


  E S S S S E E S S S S E   E S S S S E E S S S S E
|-------------------------|-------------------------|
|-------------------------|-------------------------|
|-2---------2-2---------2-|-2---------2-2---------2-|
|-------2-4---------2-4---|-------2-4---------2-4---|
|---3h4---------3h4-------|---3h4---------3h4-------|
|-------------------------|-------------------------|
|
| PM-------------------------------------------------
| E E   E   E E E   E   E   E E   E   E E E   E   E
|-------------------------|-------------------------|
|-------------------------|-------------------------|
|-------------------------|-------------------------|
|-2-2---4---2-2-2---4---2-|-2-2---4---2-2-2---4---2-|
|-0-0---0---0-0-0---0---0-|-0-0---0---0-0-0---0---0-|
|-------------------------|-------------------------|


                         D.S. al Coda
  E S S S S E E E    +S   S S    +S
|-------------------------------------||
|-------------------------5-----------||
|-2---------2-2-4b6==(4)r---4pb6r(4)--||
|-------2-4---------------------------||
|---3h4-------------------------------||
|-------------------------------------||
|
|---------------------------|
| E E   E   E E E     E     E
|-------------------------------------||
|-------------------------------------||
|-------------------------------------||
|-2-2---4---2-2-2-----4-----2---------||
|-0-0---0---0-0-0-----0-----0---------||
|-------------------------------------||


 Chorus
  &
  A
  Gtr I
   Q.        E      +Q      Q          +E    Q       E  Q    E  E
|-12--------12-----(12)----12-------|-(12)--12------12-12---12-12-|
|-12b14-----12b14==(12)r---12b14====|=(12)r-12b14===12-12---12-12-|
|-----------------------------------|-----------------------------|
|-----------------------------------|-----------------------------|
|-----------------------------------|-----------------------------|
|-----------------------------------|-----------------------------|
|
| Gtr II
|  PM-----------------------------|
|  E    E E  E       E   E  E     E     Q.           E +Q    Q
|-----------------------------------|---5------------5-(5)---5----|
|-----------------------------------|---5------------5-(5)---5----|
|-----------------------------------|---2------------2-(2)---2----|
|--2----2-4--2-------2---2--4-----2-|---2------------2-(2)---2----|
|--0----0-0--0-------0---0--0-----0-|---0------------0-(0)---0----|
|-----------------------------------|-----------------------------|


   +E   E  Q    Q    Q      S  E  S E  S S  E. S E. S
|-(12)-12-12---12---12----|----9----7----5s=3-----------|
|-(12)-12-12---12---12r---|--------------------5h7--7---|
|-------------------------|-9----\7---\6----------------|
|-------------------------|-----------------------------|
|-------------------------|-----------------------------|
|-------------------------|-----------------------------|
|
|   PM------------------|
|   E   E  E E  E E  E  E   Q.         E   +Q    Q
|-------------------------|-5----------5---(5)---5------|
|-------------------------|-5----------5---(5)---5------|
|-------------------------|-2----------2---(2)---2------|
|---2---2--4-2--2-2--4--2-|-2----------2---(2)---2------|
|---0---0--0-0--0-0--0--0-|-0----------0---(0)---0------|
|-------------------------|-----------------------------|


  ~~                                       ~~
  Q.     E E     E E E       E E E E E     Q.
|--------8-8b8.5-x---------|---5------------------|
|--------8-8b8.5-x-7-5b5.5-|---5---7-5b5.5--------|
|------------------7-5b5.5-|---5---7-5b5.5--------|
|-7------------------------|-7---x---------7------|
|--------------------------|----------------------|
|--------------------------|----------------------|
|
| PM-----------------------------------------------
| E  E E E E     E E E       E E E E E     E  E E
|--------------------------|----------------------|
|--------------------------|----------------------|
|--------------------------|----------------------|
|-2--2-4-2-2-----2-4-2-----|-2-2-4-2-2-----2--4-2-|
|-0--0-0-0-0-----0-0-0-----|-0-0-0-0-0-----0--0-0-|
|--------------------------|----------------------|


                ~~                     ~~
  E E E E E     Q.       E E E E E     Q.
|---5------------------|---5------------------|
|---5-----5b5.5--------|---5-----5b5.5--------|
|---------5b5.5--------|---------5b5.5--------|
|---------------7------|---------------7------|
|-0-----0--------------|-0-----0--------------|
|----------------------|----------------------|
|
|-------------------------------------------|
| E E E E E     E  E E   E E E E E     E  E E
|----------------------|----------------------|
|----------------------|----------------------|
|----------------------|----------------------|
|-2-2-4-2-2-----2--4-2-|-2-2-4-2-2-----2--4-2-|
|-0-0-0-0-0-----0--0-0-|-0-0-0-0-0-----0--0-0-|
|----------------------|----------------------|


  D
                ~~                     ~~
  E E E E E     Q.       E E E E E     Q.
|---5------------------|---5------------------|
|---5-----5b5.5--------|---5-----5b5.5--------|
|---------5b5.5--------|---------5b5.5--------|
|---------------7------|---------------7------|
|-0-----0--------------|-0-----0--------------|
|----------------------|----------------------|
|
| PM-------------------------------------------
| E E E E E     E  E E   E E E E E     E  E E
|----------------------|----------------------|
|----------------------|----------------------|
|-2-2-4-2-2-----2--4-2-|-2-2-4-2-2-----2--4-2-|
|-0-0-0-0-0-----0--0-0-|-0-0-0-0-0-----0--0-0-|
|----------------------|----------------------|
|----------------------|----------------------|


  A
                ~~                     ~~
  E E E E E     Q.       E E E E E     Q.
|---5------------------|---5------------------|
|---5-----5b5.5--------|---5-----5b5.5--------|
|---------5b5.5--------|---------5b5.5--------|
|---------------7------|---------------7------|
|-0-----0--------------|-0-----0--------------|
|----------------------|----------------------|
|
|-------------------------------------------|
| E E E E E     E  E E   E E E E E     E  E E
|----------------------|----------------------|
|----------------------|----------------------|
|----------------------|----------------------|
|-2-2-4-2-2-----2--4-2-|-2-2-4-2-2-----2--4-2-|
|-0-0-0-0-0-----0--0-0-|-0-0-0-0-0-----0--0-0-|
|----------------------|----------------------|


  F           D                 D5
                                                    ~~~~~~~~~~~~~~~~~~
  W                 W           H      Q  E E      +H        +E   E   E E
|----------------|------------|------------------|------------------------|
|----------------|------------|------------------|------------------------|
|----------------|------------|------------------|------------------------|
|----------------|------------|------------------|------------------------|
|----------------|------------|-------------3b5==|=(3)-------(3)r-3b5---3-|
|----------------|------------|------------------|------------------------|
|
| Q.   E +Q   Q    +W           E E Q  H            E  E E E  E   E   E E
|-------------2--|-(2)--------|------------------|------------------------|
|-1----1-(1)--3--|-(3)--------|-3----------------|------------------------|
|-2----2-(2)--2--|-(2)--------|-2----------------|------------------------|
|-3----3-(3)--0--|-(0)--------|-0----------------|--2--2-4-2--2---2---4-2-|
|-3----3-(3)-----|------------|------------------|--0--0-0-0--0---0---0-0-|
|-1----1-(1)-----|------------|------------------|------------------------|


                     ~~~~~~
  Q.     E +E  E    +Q
|-------------------------|
|-------------------------|
|--------2-(2)-4b6==(4)---|
|-------------------------|
|-0-----------------------|
|-------------------------|
|
| E  E E E  E  E     E  E
|-------------------------|
|-------------------------|
|-------------------------|
|-2--2-4-2--2--2-----4--2-|
|-0--0-0-0--0--0-----0--0-|
|-------------------------|


                                                Bridge
 ~~~~~~
  +H         E S S S S S S   Q   H       Q       W
|--------------------------|-----5------------||-0----|
|------------3-------------|-----5------------||-0----|
|-(4)r---------5p4p2---2---|------------------||-1----|
|--------------------------|------------------||-2----|
|--------------------3---3-|-0-----------7\---||-2----|
|--------------------------|------------------||-0----|
|
|  E   E E E E E   E   E     E E E E E E E  E    W
|--------------------------|------------------||-0----|
|--------------------------|------------------||-0----|
|--------------------------|------------------||-1----|
|--2---2-4-2-2-2---4---2---|-2-2-4-2-2-2-4--2-||-2----|
|--0---0-0-0-0-0---0---0---|-0-0-0-0-0-0-0--0-||-2----|
|--------------------------|------------------||-0----|


  D    A      E          D    A      E
  Gtrs I, II
  H    H      W          H    H      W
|-2----5----|-0--------|-2----5----|-0----|
|-3----5----|-0--------|-3----5----|-0----|
|-2----6----|-1--------|-2----6----|-1----|
|-0----7----|-2--------|-0----7----|-2----|
|------7----|-2--------|------7----|-2----|
|------5----|-0--------|------5----|-0----|


  D    A      E          D          Csus2
  H    H      W          W          Q  E E E E E E
|-2----5----|-0--------|-2--------|------3---------|
|-3----5----|-0--------|-3--------|--------3-------|
|-2----6----|-1--------|-2--------|----0-----0---0-|
|-0----7----|-2--------|-0--------|------------0---|
|------7----|-2--------|----------|-3--------------|
|------5----|-0--------|----------|----------------|


                    G/B                                 A
                                                        PM------------|
  E E E E E E E E   E E E E E E E E   E E E E E E E E   E E E E E E E E
|-------3---------|-------3---------|-------3---------|-----------------|
|-----3---3-------|-----3---3-------|-----3---3-------|-----------------|
|---0-------0---0-|---0-------0---0-|---0-------0---0-|-----------------|
|-------------0---|-------------0---|-------------0---|-2-2-2-2-2-2-2-2-|
|-3---------------|-2---------------|-2---------------|-0-0-0-0-0-0-0-0-|
|-----------------|-----------------|-----------------|-----------------|


                    D.S.S. al Dbl. Coda
  PM------------|
  E E E E E E E E   H    +Q.   S S   W
|-----------------|-5----(5)---5-5-|-5-----||
|-----------------|-5----(5)---5-5-|-5-----||
|-----------------|-2----(2)---2-2-|-2-----||
|-2-2-2-2-2-2-2-2-|-2----(2)---2-2-|-2-----||
|-0-0-0-0-0-0-0-0-|-0----(0)-------|-0-----||
|-----------------|----------------|-------||


 Chorus
  &&
  A
  Gtr I
                         |----3-----|     |----3-----|
  Q    S     S  S     S  E     E    E     E  E       E
|-----------12-------12-------12---------12---------12-|
|-----12b14----12b14----12b14------12b14----12b14------|
|------------------------------------------------------|
|------------------------------------------------------|
|------------------------------------------------------|
|------------------------------------------------------|
|
| Gtr II
| PM----------------------------------------------|
| E E  E        E        E       E        E       E
|------------------------------------------------------|
|------------------------------------------------------|
|------------------------------------------------------|
|-2-2--4--------2--------2-------2--------4-------2----|
|-0-0--0--------0--------0-------0--------0-------0----|
|------------------------------------------------------|


   |---3----|     |----3-----|  |---3----|     |---3----|
   E     E  E     E  E       E  E     E  E     E  E     E
|-------12-------12---------12-------12-------12-------12--|
|-12b14----12b14----12b14------12b14----12b14----12b14-----|
|----------------------------------------------------------|
|----------------------------------------------------------|
|----------------------------------------------------------|
|----------------------------------------------------------|
|
|  Q.                     E    +Q              Q
|--5----------------------5----(5)-------------5-----------|
|--5----------------------5----(5)-------------5-----------|
|--2----------------------2----(2)-------------2-----------|
|--2----------------------2----(2)-------------2-----------|
|--0----------------------0----(0)-------------0-----------|
|----------------------------------------------------------|


   ~~~~~                        ~~
   H          E S S S  S S  S   Q   Q    E  Q    E
|-------------------9\---7\---|-5-----------5\-----|
|-12b14-----------------------|-------------5\-----|
|---------------7s9----7----6-|--------------------|
|-----------------------------|--------------------|
|-----------------------------|------------------0-|
|-----------------------------|--------------------|
|
|  E    E E E E E   E    E      Q.    E +Q     Q
|-----------------------------|-5-----5-(5)----5---|
|-----------------------------|-5-----5-(5)----5---|
|-----------------------------|-2-----2-(2)----2---|
|--2----2-4-2-2-2---4----2----|-2-----2-(2)----2---|
|--0----0-0-0-0-0---0----0----|-0-----0-(0)----0---|
|-----------------------------|--------------------|


                          ~~
  E E E E E E +E    +E    Q.     E E E +E    +E
|-------5---------------|--------5----------------|
|-------5---------------|--------5----------------|
|-----------5-(5)b6-(5)-|------------5-(5)b6-(5)--|
|-----------------------|-7--------7--------------|
|-x-0-0-----------------|-------------------------|
|-----------------------|-------------------------|
|
| E E E E E E  E     E    E  E E E E E  E     E
|-----------------------|-------------------------|
|-----------------------|-------------------------|
|-----------------------|-------------------------|
|-2-2-4-2-2-2--4-----2--|-2--2-4-2-2-2--4-----2---|
|-0-0-0-0-0-0--0-----0--|-0--0-0-0-0-0--0-----0---|
|-----------------------|-------------------------|


  ~~                       ~~
  Q.     E E E +E    +E    Q.     E E E +E    +E
|--------5---------------|--------5---------------|
|--------5---------------|--------5---------------|
|------------5-(5)b6-(5)-|------------5-(5)b6-(5)-|
|-7--------7-------------|-7--------7-------------|
|------------------------|------------------------|
|------------------------|------------------------|
|
| PM-----------------------------------------------
| E  E E E E E  E     E    E  E E E E E  E     E
|------------------------|------------------------|
|------------------------|------------------------|
|------------------------|------------------------|
|-2--2-4-2-2-2--4-----2--|-2--2-4-2-2-2--4-----2--|
|-0--0-0-0-0-0--0-----0--|-0--0-0-0-0-0--0-----0--|
|------------------------|------------------------|


  D
  ~~                       ~~
  Q.     E E E +E    +E    Q.     E E E +E    +E
|--------5---------------|--------5---------------|
|--------5---------------|--------5---------------|
|------------5-(5)b6-(5)-|------------5-(5)b6-(5)-|
|-7--------7-------------|-7--------7-------------|
|------------------------|------------------------|
|------------------------|------------------------|
|
|---------------------------------------------|
| E  E E E E E  E     E    E  E E E E E  E     E
|------------------------|------------------------|
|------------------------|------------------------|
|-2--2-4-2-2-2--4-----2--|-2--2-4-2-2-2--4-----2--|
|-0--0-0-0-0-0--0-----0--|-0--0-0-0-0-0--0-----0--|
|------------------------|------------------------|
|------------------------|------------------------|


  A
  ~~
  Q.     E E E +E    +E    Q   E E   S E     S E   E
|--------5---------------|---------------------------|
|--------5---------------|---------------------------|
|------------5-(5)b6-(5)-|-------7b9---7b9-----7b9---|
|-7--------7-------------|-7-------------------------|
|------------------------|---------------------------|
|------------------------|---------------------------|
|
| E  E E E E E  E     E    E E E E   E     E   E   E
|------------------------|---------------------------|
|------------------------|---------------------------|
|------------------------|---------------------------|
|-2--2-4-2-2-2--4-----2--|-2-2-4-2---2-----2---4---2-|
|-0--0-0-0-0-0--0-----0--|-0-0-0-0---0-----0---0---0-|
|------------------------|---------------------------|


  F                  D
                     |-3-|
  Q.     S +S   E  E E E E    W
|--------------------------|----------|
|--------------------------|----------|
|-7b9====7r(7)p=5--7-5---5-|--7b9=====|
|----------------------7---|----------|
|--------------------------|----------|
|--------------------------|----------|
|
| Q.     E     +Q    Q       +W
|--------------------2-----|-(2)------|
|-1------1-----(1)---3-----|-(3)------|
|-2------2-----(2)---2-----|-(2)------|
|-3------3-----(3)---0-----|-(0)------|
|-3------3-----(3)---------|----------|
|-1------1-----(1)---------|----------|


  D5                 A
  +E    E H.         H          +Q     E E
|------------------|--------------------------|
|-(7)r\------------|--------------------------|
|------------------|--------------------------|
|---------x\-------|--------------------------|
|---------x\-------|-3b5========(3)r-----3b4==|
|------------------|--------------------------|
|
|                    PM------------------|
|  E    E Q   H      E    E E E  E   E E E
|------------------|--------------------------|
|--3---------------|--------------------------|
|--2---------------|--------------------------|
|--0---------------|-2----2-4-2--2---2-4-2----|
|------------------|-0----0-0-0--0---0-0-0----|
|------------------|--------------------------|


                                     ~
  +E   E E E  E  E S S E   E E E E E Q    E
|------5-----------------|-------------------|
|------5-----------------|-------------------|
|------2---------2---2-0-|---2-0---5-2-------|
|----------------2-4-----|-------4-----------|
|-(3)r---0-3--4----------|-------------------|
|------------------------|---------------(0)-|
|
|                          PM------------|
|  Q.      E +Q    Q       E E E E E E E  E
|--5-------5-(5)---5-----|-------------------|
|--5-------5-(5)---5-----|-------------------|
|--2-------2-(2)---2-----|-------------------|
|--2-------2-(2)---2-----|-2-2-4-2-2-2-4--2--|
|--0-------0-(0)---0-----|-0-0-0-0-0-0-0--0--|
|------------------------|-------------------|


            ~
  E E E E E Q    E    E E E E E E E E
|-------------------|-----------------|
|-------------------|-----------------|
|---2-0---5-2-------|---2-0-----------|
|-------4-----------|-------4-2-0-----|
|-0-----------------|-0-----------4-2-|
|---------------(0)-|-----------------|
|
| PM-----------------------------------
| E E E E E E E  E    E E E E E E E E
|-------------------|-----------------|
|-------------------|-----------------|
|-------------------|-----------------|
|-2-2-4-2-2-2-4--2--|-2-2-4-2-2-2-4-2-|
|-0-0-0-0-0-0-0--0--|-0-0-0-0-0-0-0-0-|
|-------------------|-----------------|


                       D
              ~                                ~
  E E E E E   Q   E    E E     E E E     E E   E
|--------------------|---------------------------|
|--------------------|---5b5.5-----5b5.5---------|
|-------------2------|---5b5.5-----5b5.5-------2-|
|-----------------x\-|---------------------------|
|-0-------3b4-----x\-|-0---------0---------3b4---|
|---3-2-0------------|---------------------------|
|
|----------------------------------------------|
| E E E E E   E E E    E E     E E E     E E   E
|--------------------|---------------------------|
|--------------------|---------------------------|
|--------------------|-2-2-----4-2-2-----2-4---2-|
|-2-2-4-2-2---2-4-2--|-0-0-----0-0-0-----0-0---0-|
|-0-0-0-0-0---0-0-0--|---------------------------|
|--------------------|---------------------------|


                          A
   ~~~                                    ~
  +Q    E E E E E     E   +E  E E E E     Q   E
|-----------------------|-----5-----------------|
|-----------------------|-----5-----5b5.5-------|
|-(2)---0-0-------------|-----------5b5.5-------|
|-----------4-----------|---------7-------7-----|
|-------------0-3b3.5-0-|-(0)-----------------0-|
|-----------------------|-----------------------|
|
|  PM--------------------------------------------
|  E  E E E E E E     E    E  E E E E     E E E
|-----------------------|-----------------------|
|-----------------------|-----------------------|
|--2--2-4-2-2-2-4-----2-|-----------------------|
|--0--0-0-0-0-0-0-----0-|--2--2-4-2-2-----2-4-2-|
|-----------------------|--0--0-0-0-0-----0-0-0-|
|-----------------------|-----------------------|


                ~
  E E E E E     Q   E   E   +Q   E   +Q   Q
|---5-----------------|-------------------------|
|---5-7---5b5.5-------|-8---(8)--8---(8)--8-----|
|-----7---5b5.5-------|-7b9r(7)--7b9r(7)--7b9===|
|-------7-------7-----|-------------------------|
|-0-----------------0-|-------------------------|
|---------------------|-------------------------|
|
|-------------------|
| E E E E E     E E E   Q.       E   +Q   Q
|---------------------|-------------------2-----|
|---------------------|-1--------1---(1)--3-----|
|---------------------|-2--------2---(2)--2-----|
|-2-2-4-2-2-----2-4-2-|-3--------3---(3)--0-----|
|-0-0-0-0-0-----0-0-0-|-3--------3---(3)--------|
|---------------------|-1--------1---(1)--------|


                                                                          A7
   ~~~~
  +W            Q    Q  H      E E E E E E   +S  S S S   S   S E E E +Q   Q
|-------------|--------------|-------------------------|-----------3-(3)--3---|
|-(8)---------|-7\-----------|-------------------------|-----------2-(2)--2---|
|-(7)r--------|-7\-----------|---------2-4b5r(4)-2---2-|---------2-2-(2)--2---|
|-------------|-7\-----------|-------2-------------4---|-----------0-(0)--2---|
|-------------|--------------|-0-0-4-------------------|-3b4p0----------------|
|-------------|--------------|-------------------------|-------3--------------|
|
| +W            e  E Q  H      E E E E E E    E    E     E     E E E +Q   Q
|-(2)---------|--------------|-------------------------|-----------5-(5)--0---|
|-(3)---------|-3------------|-------------------------|-----------5-(5)--2---|
|-(2)---------|-2------------|-------------------------|-----------2-(2)--0---|
|-(0)---------|-0------------|-------------------------|-----------2-(2)--2---|
|-------------|--------------|-0-0-4-4-5-5----6----6---|-7-----5-3-0-(0)--0---|
|-------------|--------------|-------------------------|----------------------|


                 A7
                 ~
  +Q.   E H      H      H
|-(3)---8s9----|-9-----------*|
|-(2)----------|-8-----------*|
|-(2)---8s9----|-9-----------*|
|-(2)----------|-7-----------*|
|--------------|-0-----------*|
|--------------|-------------*|
|
| +W             E E Q  H
|-(0)----------|-0-----------*|
|-(2)----------|-2-----------*|
|-(0)----------|-0-----------*|
|-(2)----------|-2-----------*|
|-(0)----------|-0-----------*|
|--------------|-------------*|


Duration Legend
---------------
W - whole; H - half; Q - quarter; E - 8th; S - 16th; T - 32nd; X - 64th; a - acciaccatura
+ - note tied to previous; . - note dotted; .. - note double dotted
Uncapitalized letters represent notes that are staccato (1/2 duration)
Irregular groupings are notated above the duration line
Duration letters will always appear directly above the note/fret number it represents the
duration for.  Duration letters with no fret number below them represent rests.  Multi-
bar rests are notated in the form Wxn, where n is the number of bars to rest for.  Low
melody durations appear below the staff

Tablature Legend
----------------
 h   - hammer-on
 p   - pull-off
 b   - bend
 pb  - pre-bend
 r   - bend release (if no number after the r, then release immediately)
 /\  - slide into or out of (from/to "nowhere")
 s   - legato slide
 S   - shift slide
  - natural harmonic
[n]  - artificial harmonic
n(n) - tapped harmonic
 ~   - vibrato
 tr  - trill
 T   - tap
 TP  - trem. picking
 PM  - palm muting
\n/  - tremolo bar dip; n = amount to dip
 \n  - tremolo bar down
 n/  - tremolo bar up
/n\  - tremolo bar inverted dip
 =   - hold bend; also acts as connecting device for hammers/pulls
 <>  - volume swell (louder/softer)
 x   - on rhythm slash represents muted slash
 o   - on rhythm slash represents single note slash

Misc Legend
-----------
 |  - bar
||  - double bar
||o - repeat start
o|| - repeat end
*|  - double bar (ending)
 :  - bar (freetime)
 $  - Segno
 &  - Coda
Tempo markers -  = BPM(8/16=s8/s16), where s8 = swing 8ths, s16 = swing 16ths
Suggest correction
Creating personal tab
Creating personal tab
You can edit any tab online and save it as your Personal.

You can edit, replace or remove any tab part or add personal notes – all changes will be seen only by you.

Personal tabs can be accessed anytime from any device, even offline.
Learn more »
Give kudos to tab author, rate the tab!
1 2 3 4 5
comments
print report bad tab
guest
You may want to rate the tab now too:
select rating
Wanna post a correction for this tab? Suggest correction