Oops, an error
Loading. Please wait.

Magic Bus Chords

version 2
version 2

Whole song

  • Added Transcribed Intro Riff (Floydman939) to Chor... Show more

Interactive

229 views 9 this week
no commentswrite comment
1 2 3 4 5
3 more votes to show rating
add to favorites
launch autoscroll
font size
0
reset
transpose
0
reset
simplify chords
display chords
guitar tuner
×
Best way to learn
"Magic Bus"
Autoscroll
slow
fast
+/-
esc
set tempo
stop
Author
Difficulty
Capo
  follow
intermediate
4th fret
About this tab version
Added Transcribed Intro Riff (Floydman939) to Chords (MatisyahuFan). Thanks to the original Tabbers. Was this info helpful? Yes No
Strumming Is this strumming pattern correct? Yes No
93 bpm
1
&
2
&
3
&
4
&
Listen
Capo IV - Tune Down 1/4 for Original

Intro Riff: ^ = Bend

E----------------------------------------------------------------------|
B--------------------------------7-7-2-2---5-5---5----8-8-8--7--7------|
G--------------------------------7-7-2-2---4-4---4----7-7-7--7--7------|
D-------------------2--2--2--0---7-7-2-2---6-6---6----5-5-5--7--7------|
A-2--2--2-----------2--2--2--0---0-0-0-0-----7---7----5-5-5--0--0------|
E-0--0--0-3^-----3^-0--0--0----------0-------0---0---------------------|

E-----------------------------------------------------------------------|
B-----5--5----8-8-8-8-7--7--------------------------------------------3-|
G-----4--4----7-7-7-7-7--7--------------------------------------------2-|
D-----6--6----5-5-5-5-7--7----2-----2----------------------------2----0-|
A-7---7--7----5-5-5-5-0--0----2-----2---2------------------------2--0-0-|
E-0-0-0--0------------------0-0---0-0---0-3^---0-3^-3^-3^-x--3^--0--2-2-|

E----------------------------------------------------------------------|
B---3--3--2------------------------------------------------------------|
G-2-2--2--2------------------------------------------------------------|
D-0-2--2--2------------------------------------------------------------|
A-0-0--0--0------------------------------------------------------------|
E----------------------------------------------------------------------|

[Verse 1]

E           G          D      E             G     D
Every day I get in the queue (Too much, the Magic Bus)
   E                   G           D    E             G     D
To get on the bus that takes me to you (Too much, the Magic Bus)
E               G      D       E                    G     D
I'm so nervous, I just sit and smile (Too much, the Magic Bus)
     E              G      D     E             G     D
Your house is only another mile (Too much, the Magic Bus)
E                      G          D     E             G     D
Thank you, driver, for getting me here (Too much, the Magic Bus)
       E                G       D     E             G     D
You'll be an inspector, have no fear (Too much, the Magic Bus)
E               G        D     E             G     D
I don't want to cause no fuss (Too much, the Magic Bus)
    E              G     D     E             G     D
But can I buy your Magic Bus? (Too much, the Magic Bus)
Nooooooooo!

[Instrumental]

E5

E G D

[Verse 2]

E                G      D    E             G     D
I don't care how much I pay (Too much, the Magic Bus)
        E                  G         D    E             G     D
I wanna drive my bus to my baby each day (Too much, the Magic Bus)

[Break]

E5
Magic Bus, Magic Bus, Magic Bus, Magic Bus
I want it, I want it, I want it, (You can't have it!)
Think how much you'll save, (You can't have it!)]
I want it, I want it, I want it, I want it ... (You can't have it!)

E5
Thruppence and sixpence every day
E5
Just to drive to my baby
E5
Thruppence and sixpence each day
E5
'Cause I drive my baby every way

E         G  D  
Magic Bus         x8
E          G     D 
I want the Magic Bus  x4

[Verse 3]

        E               G     D    E             G     D
I said, now I've got my Magic Bus (Too much, the Magic Bus)
        E               G     D    E             G     D
I said, now I've got my Magic Bus (Too much, the Magic Bus)
  E             G     D    E             G     D
I drive my baby every way (Too much, the Magic Bus)
     E           G         D    E             G     D
Each time I go a different way (Too much, the Magic Bus)

E         G  D  
Magic Bus       x4

[Outro]

E                G       D     E             G     D
Every day you'll see the dust (Too much, the Magic Bus)
     E                   G     D    E             G     D
As I drive my baby in my Magic Bus (Too much, the Magic Bus)
Suggest correction
Give kudos to tab author, rate the tab!
1 2 3 4 5
comments
print report bad tab
guest
You may want to rate the tab now too:
select rating
Wanna post a correction for this tab? Suggest correction