Oops, an error
Loading. Please wait.

Naked Eye solo tab

version 1
version 1

Solo

  • Includes solo, previously not found on UG, and it'... Show more

Whole song

by The Who
52 views 1 this week
no commentswrite comment
1 2 3 4 5
2 more votes to show rating
add to favorites
×
Save as Personal and add changes to this tab that will be seen only by you. Learn more ›
×
You can save this tab as Personal to edit and correct it or add notes. All changes will be seen only by you. Learn more »
launch autoscroll
font size
0
reset
how to read this tab
guitar tuner
edit
Autoscroll
slow
fast
+/-
esc
set tempo
stop
Author
Difficulty
About this tab version
Includes solo, previously not found on UG, and it's the extended solo found on the remaster version. Was this info helpful? Yes No
 [first solo 4/4]                              
 |G   |G          |F6/9          |Cadd9          |G              |
e|3---|-----------|--------------|---------------|---------------|
B|3---|-----------|--------------|---------------|---------------|
G|0---|-----------|--------------|---------------|---------------|
D|0---|-------0-2-|3-----3-3-2-0-|---------------|---------------|
A|----|-----------|--------------|3------2h3-2---|---------------|
E|3--3|3----------|--------------|-------------3-|3-----3-3--3-0-|

 |G                |F6/9        |Cadd9                   |
e|--7------10-12-10|13^---13^\--|------------------------|
B|-----------------|------------|10----------------------|
G|/7---------------|------------|---12--12\-----3-x-3-3~-|
D|-----------------|------------|-------------5----------|
A|-----------------|------------|------------------------|
E|-----------------|------------|------------------------|

 |G                 |G                                            |
e|------------------|10p6-10p6-10p6-10p6-10p6-10p6-10p6-----------|
B|-----5h8-5-8--8/8-|----8----8----8----8----8----8----8-8h10-----|
G|------------------|---------------------------------------------|
D|5-----------------|----------------------------------------10p8-|
A|------------------|---------------------------------------------|
E|------------------|---------------------------------------------|

 |F6/9          |Cadd9               |G               |
e|--------------|--------------------|----------------|
B|-10------11-10|---5----6-5-6--5----|----------------|
G|--------------|------------------3^|----------------|
D|/10-10/12-\10-|3/5----5-5-5-7-5-5--|5-3-5------3----|
A|--------------|--------------------|-------3-5--5---|
E|--------------|--------------------|-------------3--|

 |G                                ||
e|---------------------------------||
B|---------------------------------||
G|--------------3^-----------------||
D|----------3-------5-3h5p3-----5--||
A|------3-5---5--------------5-----||
E|3-3-6----------------------------||

[

[outro solo; 6/8]     
|G   (Gsus4) |G    |

 |F6/9              |Cadd9               |G                   |
e|------------------|--------------------|---3--------3-------|
B|1------1----------|3-------------------|---3--3--3----------|
G|2--0h2---0--------|0------0------------|0--------0----------|
D|3-----------------|2--0h2--------------|0-------------------|
A|------------------|3--------3----------|--------------------|
E|------------------|--------------------|3-------------------|

 |G             |F6/9  |Cadd9 |G    |G              |
e|--------------|------|-/8---|/7---|-------7-7-7---|
B|--------------|-/10--|-/8---|/8---|8---6h8--8-8-8-|
G|--------------|-/10--|------|/7---|---------------|
D|----0-0-------|-/10--|------|-----|9--------------|
A|2-3-----3-2---|------|------|-----|---------------|
E|3-------------|------|------|-----|---------------|

 |F6/9           |Cadd9|G       |            |F6/9       |
e|---------------|-----|3-------|3-----------|-----------|
B|-6-----------\-|-5---|3-------|3-----------|-----------|
G|---------------|-5---|4-------|0-----------|-----------|
D|---------------|-----|5-------|0------0-2--|3----2h3-2-|
A|---------------|-----|--------|------------|-----------|
e|---------------|-----|-------3|------------|-----------|

 |Cadd9         |G              |G       |F6/9      |
e|--------------|---------------|--------|----------|
B|--------------|-------0-------|--------|----------|
G|--------------|-------0-------|--------|----------|
D|--------------|-------0-------|--------|--3-------|
A|3--3--2h3p2---|---------------|--------|------0h2h|
E|--------------|3--------------|3-0-3-3-|1---1-----|

 |Cadd9     |G              |               |
e|----------|---------------|---------------|
B|----------|---------------|---------0-----|
G|----------|---------------|3^-------0-----|
D|----------|-----------3-5-|---5-5---0--0h2|
A|3-----2h3h|5--------------|---------------|
E|----------|---------------|---------------|

 |F6/9         |Cadd9   | G         |          |
e|---------3---|-----3--|---7----7--|--7----7--|
B|----0h1--1---|-----3--|-----------|----------|
G|-------------|-----0--|/7----7----|7----7----|
D|h3---------3-|2----2--|-----------|----------|
A|-------------|----(3)-|-----------|----------|
E|-------------|--------|-----------|----------|

 |F6/9                 |Cadd9               ||G                    |
e|---------------------|--------------------||---------------------|
B|---10---10---10---10-|---5----5----5----5-||---12---12---12---12-|
G|---------------------|--------------------||---------------------|
D|0h10-0h10-0h10-0h10--|0h5--0h5--0h5--0h5--||0h12-0h12-0h12-0h12--|
A|---------------------|--------------------||---------------------|
E|---------------------|--------------------||---------------------|
                                            [next four measures
                                             restored in remaster]

 |G                    |F6/9             |Cadd9   ||G             |
e|---------------------|-----------------|--------||--------------|
B|---10---10---8----8--|-----------------|--------||--------------|
G|---------------------|2^-------------3-|5^----x-||10^10^10^-10--|
D|0h10-0h10-0h9--0h9---|---3p0-------5---|--------||--------------|
A|---------------------|-----------------|--------||--------------|
E|---------------------|-----------------|--------||--------------|
                                     [end restored]

 |G         |F6/9        |Cadd9            |G               |
e|----------|------------|-----------------|----------------|
B|----------|------------|11-8^------------|----------------|
G|12^12^12^-|12^--12^----|-------10^\p8--7-|7h9^-7-5-3^-----|
D|----------|------------|-----------------|------------5-3-|
A|----------|------------|-----------------|----------------|
E|----------|------------|-----------------|----------------|

 |G                |F6/9                       |Cadd9              |
e|-----------------|---------------------------|---------------3---|
B|-----------------|-------------3p0------3p0--|-----------------6-|
G|----3p0-3p0-3p0--|3p0-3p0-3p0-----0-3p0----0-|3p0-3p0--3^-5^-----|
D|5-5----5---5---5-|---5---5---5---------5-----|---5---5-----------|
A|-----------------|---------------------------|-------------------|
E|-----------------|---------------------------|-------------------|

 | G                           |                           |
e|-------10p6-10p6-10p6-10p6---|10p6-10p6-10p6-10p6--------|
B|/8-8-8-----8----8----8----8--|----8----8----8----8---15--|
G|-----------------------------|---------------------10----|
D|-----------------------------|---------------------------|
A|-----------------------------|---------------------------|
E|-----------------------------|---------------------------|

 |F6/9        |Cadd9           |G         |G          |F6/9 |
e|------------|15--15--15--15--|15---15---|15---15----|15---|
B|18^---18^18^|18^-18^-18^-18^-|18^^-18^^-|18^^-18^---|18^--|
G|------------|----------------|----------|-----------|-----|
D|------------|----------------|----------|-----------|-----|
A|------------|----------------|----------|-----------|-----|
E|------------|----------------|----------|-----------|-----|

T Take a little dope and walk out in the air
The stars are all connected to the brain
Find me a woman and lay down on the ground
Her pleasure comes falling down like rain
Get myself a car, I feel power as I fly
Oh, now I'm really in control

It all looks fine  to the naked eye
But it   don't really happen that way at all
Don't happen that way at all.
           
You sign your own name and I sign mine
They're both the same, but we still get separate rooms

[fills]
e|--15-14h15p14-------------|------|
B|-------------15-----------|------|
G|---------------14---12-12-|11~---|
D|--------------------------|---12-|
A|--------------------------|------|
E|--------------------------|------|

You can cover up your guts, but when you cover up your nuts
You're admitting that there must be something wrong
Press any button, and milk and honey flows
The world begins behind your neighbor's wall
e|------------------|---|
B|------------------|---|
G|4^-4\--2-0--------|---|
D|-----------4--0---|0--|
A|----------------3-|---|
E|------------------|---|
[repeat chorus]
It all looks fine to the naked eye
But it don't really happen that way at all, na na no...
Don't happen that way at all.


It seems that everything is all too much
But she just lays in bed at night

The day's all right but then....

When the lights go out
She calls your name
When the lights go out
Always the same
Always someone left out in the rain
Always the same

She's the kind who needs the tender touch
She never wants to compromise
What you thought you'd never have gets up
And disappears before your eyes

The day's all right but then....

When the lights go out
She calls your name
When the 
Always
 
Always he likes to stay in 

************************************

| P   Pull-off
| h   Hammer-on
| /   Slide

************************************
Suggest correction
Creating personal tab
Creating personal tab
You can edit any tab online and save it as your Personal.

You can edit, replace or remove any tab part or add personal notes – all changes will be seen only by you.

Personal tabs can be accessed anytime from any device, even offline.
Learn more »
Give kudos to tab author, rate the tab!
1 2 3 4 5
comments
print report bad tab
guest
You may want to rate the tab now too:
select rating
Wanna post a correction for this tab? Suggest correction