Oops, an error
Loading. Please wait.
We have an official Pinball Wizard tab made by UG professional guitarists. Check out the tab »
×
by The Who
544 views 6 this week
no commentswrite comment
1 2 3 4 5
2 more votes to show rating
add to favorites
×
Save as Personal and add changes to this tab that will be seen only by you. Learn more ›
×
You can save this tab as Personal to edit and correct it or add notes. All changes will be seen only by you. Learn more »
launch autoscroll
font size
0
reset
how to read this tab
guitar tuner
backing track
0:00
0:00
edit
Autoscroll
slow
fast
+/-
esc
set tempo
stop
Author
Difficulty
PINBALL WIZARD

As recorded by The Who
(From the 1969 Album TOMMY)

Words and Music by Pete Townshend

Transcribed by Slowhand


Gtr I (E A D G B E) - 'Pete Townshend - Acoustic Guitar'
Gtr II (E A D G B E) - 'Pete Townshend - Electric Guitar'


 Intro 1
  Q=132
  Bm/F#             Bmadd4            F#7sus4           F#7
 4/4
  Gtr I (Ac. Gtr.)
  W                 W                 W                 W
|-2---------------|-0---------------|-0---------------|-0---------------|
|-3---------------|-3---------------|-2---------------|-2---------------|
|-4---------------|-4---------------|-4---------------|-3---------------|
|-4-4-4-4-4-4-4-4-|-4-4-4-4-4-4-4-4-|-4-4-4-4-4-4-4-4-|-4-4-4-4-4-4-4-4-|
|-----------------|-----------------|-----------------|-----------------|
|-----------------|-----------------|-----------------|-----------------|
  E E E E E E E E   E E E E E E E E   E E E E E E E E   E E E E E E E E


  F#m7              Gmaj7add6
  W                 W
|-0---------------|-0---------------|
|-2---------------|-0---------------|
|-2---------------|-0---------------|
|-4-4-4-4-4-4-4-4-|-4-4-4-4-4-4-4-4-|
|-----------------|-----------------|
|-----------------|-----------------|
  E E E E E E E E   E E E E E E E E


                      F#                F#7
  H       +Q.     E   E E E S S S S S S S S S S
|-0-------(0)-------|-------------------0-0-0-0--|
|-0-------(0)-------|-2-2-2-2-2-2-2-2-2-2-2-2-2--|
|-4-4-4-4--4--4-4-3-|-3-3-3-3-3-3-3-3-3-3-3-3-3--|
|-5-5-5-5--5--5-5-4-|-4-4-4-4-4-4-4-4-4-4-4-4-4--|
|-------------------|----------------------------|
|-------------------|-2-2-2-2-2-2-2-2-2-2-2-2-2--|
  E E E E  E  E E E


                          Intro 2
                           Bsus4
  E S S E S S S S E E E    S S S S S S S S S S S S E E
|-0-0-0-0-0-0-0-0-0-----||-7-7-7-7-7-7-7-7-7-7-7-7-7-7-|
|-2-2-2-2-2-2-2-2-2-----||-7-7-7-7-7-7-7-7-7-7-7-7-7-7-|
|-3-3-3-3-3-3-3-3-3-0---||-9-9-9-9-9-9-9-9-9-9-9-9-9-9-|
|-4-4-4-4-4-4-4-4-4-0---||-9-9-9-9-9-9-9-9-9-9-9-9-9-9-|
|-----------------------||-----------------------------|
|-2-2-2-2-2-2-2-2-2---7-||-7-7-7-7-7-7-7-7-7-7-7-7-7-7-|


  B                             Bsus4
  S S S S S S S S S S S S E E   S S S S S S S S S S S S E E
|-7-7-7-7-7-7-7-7-7-7-7-7-7-7-|-7-7-7-7-7-7-7-7-7-7-7-7-7-7-|
|-7-7-7-7-7-7-7-7-7-7-7-7-7-7-|-7-7-7-7-7-7-7-7-7-7-7-7-7-7-|
|-8-8-8-8-8-8-8-8-8-8-8-8-8-8-|-9-9-9-9-9-9-9-9-9-9-9-9-9-9-|
|-9-9-9-9-9-9-9-9-9-9-9-9-9-9-|-9-9-9-9-9-9-9-9-9-9-9-9-9-9-|
|-----------------------------|-----------------------------|
|-7-7-7-7-7-7-7-7-7-7-7-7-7-7-|-7-7-7-7-7-7-7-7-7-7-7-7-7-7-|


                              Bsus4
  S S S S S S S S S S S S S S S S   S S S S S S S S S S S S E E
|-7-7-7-7-7-7-7-7-7-7-7-7-7-7-0-0-|-0-0-0-0-0-0-0-0-0-0-0-0-0-0--|
|-7-7-7-7-7-7-7-7-7-7-7-7-7-7-0-0-|-0-0-0-0-0-0-0-0-0-0-0-0-0-0--|
|-8-8-8-8-8-8-8-8-8-8-8-8-8-8-9-9-|-9-9-9-9-9-9-9-9-9-9-9-9-9-9--|
|-9-9-9-9-9-9-9-9-9-9-9-9-9-9-9-9-|-9-9-9-9-9-9-9-9-9-9-9-9-9-9--|
|---------------------------------|------------------------------|
|-7-7-7-7-7-7-7-7-7-7-7-7-7-7-7-7-|-7-7-7-7-7-7-7-7-7-7-7-7-7-7--|
|
| Gtr II (El. Gtr. w/ dist.)
| H               Q       E   S S   W
|---------------------------------|------------------------------|
|---------------------------------|------------------------------|
|---------------------------------|------------------------------|
|-------------------------------7s|=9----------------------------|
|---------------------------------|------------------------------|
|-------------------------------5s|=7----------------------------|


  Badd4                              Bsus4
   S  S S S S S S S S S S S E  E     S S S S S S S S S S S S S S S S
|--0--0-0-0-0-0-0-0-0-0-0-0-0--0---|-0-0-0-0-0-0-0-0-0-0-0-0-0-0-0-0-|
|--0--0-0-0-0-0-0-0-0-0-0-0-0--0---|-0-0-0-0-0-0-0-0-0-0-0-0-0-0-0-0-|
|--8--8-8-8-8-8-8-8-8-8-8-8-8--8---|-9-9-9-9-9-9-9-9-9-9-9-9-9-9-9-9-|
|--9--9-9-9-9-9-9-9-9-9-9-9-9--9---|-9-9-9-9-9-9-9-9-9-9-9-9-9-9-9-9-|
|----------------------------------|---------------------------------|
|--7--7-7-7-7-7-7-7-7-7-7-7-7--7---|-7-7-7-7-7-7-7-7-7-7-7-7-7-7-7-7-|
|
| +H.                       E.   S   W
|----------------------------------|---------------------------------|
|----------------------------------|---------------------------------|
|----------------------------------|---------------------------------|
|-(9)----------------------------7s|=9-------------------------------|
|----------------------------------|---------------------------------|
|-(7)----------------------------5s|=7-------------------------------|


                                      1st & 2nd Verses
                                       Bsus4
   S  S S S S S S S S S S S E  E       S S S S S S S S S S S S S S S S
|--0--0-0-0-0-0-0-0-0-0-0-0-0--0---||--7-7-7-7-7-7-7-7-7-7-7-7-7-7-7-7-|
|--0--0-0-0-0-0-0-0-0-0-0-0-0--0---||o-7-7-7-7-7-7-7-7-7-7-7-7-7-7-7-7-|
|--8--8-8-8-8-8-8-8-8-8-8-8-8--8---||--9-9-9-9-9-9-9-9-9-9-9-9-9-9-9-9-|
|--9--9-9-9-9-9-9-9-9-9-9-9-9--9---||--9-9-9-9-9-9-9-9-9-9-9-9-9-9-9-9-|
|----------------------------------||o---------------------------------|
|--7--7-7-7-7-7-7-7-7-7-7-7-7--7---||--7-7-7-7-7-7-7-7-7-7-7-7-7-7-7-7-|
|
| +H.                       E.   S     W
|----------------------------------||----------------------------------|
|----------------------------------||o---------------------------------|
|----------------------------------||----------------------------------|
|-(9)----------------------------7s||==9-------------------------------|
|----------------------------------||o---------------------------------|
|-(7)----------------------------5s||==7-------------------------------|


  B                                  Asus4
   S  S S S S S S S S S S S E  S S   S S S S S S S S S S S S E E
|--7--7-7-7-7-7-7-7-7-7-7-7-7--7-7-|-5-5-5-5-5-5-5-5-5-5-5-5-5-5-|
|--7--7-7-7-7-7-7-7-7-7-7-7-7--7-7-|-5-5-5-5-5-5-5-5-5-5-5-5-5-5-|
|--8--8-8-8-8-8-8-8-8-8-8-8-8--8-8-|-7-7-7-7-7-7-7-7-7-7-7-7-7-7-|
|--9--9-9-9-9-9-9-9-9-9-9-9-9--9-9-|-7-7-7-7-7-7-7-7-7-7-7-7-7-7-|
|----------------------------------|-----------------------------|
|--7--7-7-7-7-7-7-7-7-7-7-7-7--7-7-|-5-5-5-5-5-5-5-5-5-5-5-5-5-5-|
|
| +H.                       E.   S   W
|----------------------------------|-----------------------------|
|----------------------------------|-----------------------------|
|----------------------------------|-----------------------------|
|-(9)----------------------------6s|=7---------------------------|
|----------------------------------|-----------------------------|
|-(7)----------------------------4s|=5---------------------------|


  A                                    Gsus4
   S  S S S S S S S S S S S S  S S S   S S S S S S S S S S S S S S S S
|--5--5-5-5-5-5-5-5-5-5-5-5-5--5-x-x-|-3-3-3-3-3-3-3-3-3-3-3-3-3-3-3-3-|
|--5--5-5-5-5-5-5-5-5-5-5-5-5--5-x-x-|-3-3-3-3-3-3-3-3-3-3-3-3-3-3-3-3-|
|--6--6-6-6-6-6-6-6-6-6-6-6-6--6-x-x-|-5-5-5-5-5-5-5-5-5-5-5-5-5-5-5-5-|
|--7--7-7-7-7-7-7-7-7-7-7-7-7--7-x-x-|-5-5-5-5-5-5-5-5-5-5-5-5-5-5-5-5-|
|------------------------------------|---------------------------------|
|--5--5-5-5-5-5-5-5-5-5-5-5-5--5-x-x-|-3-3-3-3-3-3-3-3-3-3-3-3-3-3-3-3-|
|
| +H.                       E.     S   W
|------------------------------------|---------------------------------|
|------------------------------------|---------------------------------|
|------------------------------------|---------------------------------|
|-(7)------------------------------4s|=5-------------------------------|
|------------------------------------|---------------------------------|
|-(5)------------------------------2s|=3-------------------------------|


  G                                    F#sus4                  F#7sus4
   S  S S S S S S S S S S S S  S S S   S S S S S S S S S S S S S S S S
|--3--3-3-3-3-3-3-3-3-3-3-3-3--3-x-x-|-2-2-2-2-2-2-2-2-2-2-2-2-0-0-0-0-|
|--3--3-3-3-3-3-3-3-3-3-3-3-3--3-x-x-|-2-2-2-2-2-2-2-2-2-2-2-2-0-0-0-0-|
|--4--4-4-4-4-4-4-4-4-4-4-4-4--4-x-x-|-4-4-4-4-4-4-4-4-4-4-4-4-4-4-4-4-|
|--5--5-5-5-5-5-5-5-5-5-5-5-5--5-x-x-|-4-4-4-4-4-4-4-4-4-4-4-4-4-4-4-4-|
|------------------------------------|---------------------------------|
|--3--3-3-3-3-3-3-3-3-3-3-3-3--3-x-x-|-2-2-2-2-2-2-2-2-2-2-2-2-2-2-2-2-|
|
| +H.                       E.     S   W
|------------------------------------|---------------------------------|
|------------------------------------|---------------------------------|
|------------------------------------|---------------------------------|
|-(5)------------------------------3s|=4-------------------------------|
|------------------------------------|---------------------------------|
|-(3)------------------------------1s|=2-------------------------------|


              1.
               B     A   D       E                    B     A   D
  q  Q  H      E E E E E E E E   Q  E S S E E E S S   E E E E E E E E
|-0----------|-----------2-----|-0--0-0-0-0-0-0-0-0-|-----------2-----|
|-0----------|-4-4---2---3-----|-0--0-0-0-0-0-0-0-0-|-4-4---2---3-----|
|-4----------|-4-4---2---2-----|-1--1-1-1-1-1-1-1-1-|-4-4---2---2-----|
|-4----------|-4-4---2---0-----|-2--2-2-2-2-2-2-2-2-|-4-4---2---0---0-|
|------------|-2-2-x-0-x---x---|-2--2-2-2-2-2-2-2-2-|-2-2-x-0-x---x-0-|
|-2----------|-----x---x---x-0-|-0--0-0-0-0-0-0-0-0-|-----x---x---x-0-|
|
| q  Q  H      E E E E E E E E   W                    E E E E E E E E
|------------|-----------------|-0------------------|-----------------|
|------------|-4-4---2---3-----|-0------------------|-4-4---2---3-----|
|------------|-4-4---2---2-----|-1------------------|-4-4---2---2-----|
|-4----------|-4-4---2---0-----|-2------------------|-4-4---2---0-----|
|------------|-2-2---0---------|-2------------------|-2-2---0-------2-|
|-2----------|---------------0-|-0------------------|-------------0-0-|


                               2.
  E                             B     A   D
  E  S S E S S E E  E  E        E E E E E E E E
|-0--0-0-0-0-0-0-0-----------||-----------2-----|
|-0--0-0-0-0-0-0-0----------o||-4-4---2---3-----|
|-1--1-1-1-1-1-1-1-----------||-4-4---2---2-----|
|-2--2-2-2-2-2-2-2--0--0-----||-4-4---2---0-----|
|-2--2-2-2-2-2-2-2--0--0----o||-2-2-x-0-x---x-2-|
|-0--0-0-0-0-0-0-0--0--0-----||-----x---x---x-0-|
|
| H.               +E.   S      E E E E E E E E
|-0----------------(0)-------||-----------------|
|-0----------------(0)------o||-----------3-----|
|-1----------------(1)-------||-4-4---2---2-----|
|-2----------------(2)---7/--||-4-4---2---0-----|
|-2----------------(2)------o||-2-2---0---------|
|-0----------------(0)---5/--||---------------0-|


  E                           B     A   D
  Q   E S S E E  E  S   S     E E E E E E E E
|-0---0-0-0-0-0--0--x---x---|-------0---2-----|
|-0---0-0-0-0-0--0--x---x---|-4-4---2---3-----|
|-1---1-1-1-1-1--1--x---x---|-4-4---2---2-----|
|-2---2-2-2-2-2--2--x---x---|-4-4---2---0-----|
|-2---2-2-2-2-2--2--x---x---|-2-2-x-0-x---x-2-|
|-0---0-0-0-0-0--0--x---x---|-----x---x---x-0-|
|
|                   |--3--|
| H.            +E  S S   S   E E E E E E E E
|-0-------------(0)---------|-----------2-----|
|-0-------------(0)---------|-4-4---2---3-----|
|-1-------------(1)---------|-4-4---2---2-----|
|-2-------------(2)-2-2---2-|-4-4---2---0-----|
|-2-------------(2)-2-2---2-|-2-2---0-------2-|
|-0-------------(0)-0-0---0-|---------------0-|


                          Chorus
  E                        E     F#    B     E       F#      B
  Q   E S S S S E  E  E    E S S E S S E E E E     E E E S S E E E E
|-0---0-0-0-0-0-0--0--0-||-0-x-x-------------0---|-x-2-2-x-x-----------|
|-0---0-0-0-0-0-0--0--0-||-0-x-x-------4-4---0---|-x-2-2-x-x-4-4-4-----|
|-1---1-1-1-1-1-1--1--1-||-1-x-x-3-x-x-4-4---1---|-x-3-3-x-x-4-4-4-----|
|-2---2-2-2-2-2-2--2--2-||-2-x-x-4-x-x-4-4---2---|-x-4-4-x-x-4-4-4-----|
|-2---2-2-2-2-2-2--2--2-||-2-x-x-4-x-x-2-2---2---|-x-4-4-x-x-2-2-2-----|
|-0---0-0-0-0-0-0--0--0-||-0-x-x-2-x-x-------0---|-x-2-2-x-x-------0---|
|
| H.              +E  E    E E   E S S E E E S S   E E E S S E E E S S
|-0---------------(0)---||-----------------------|---------------------|
|-0---------------(0)---||-----------------------|---------------------|
|-1---------------(1)---||-------------4-4-------|-----------4-4-------|
|-2---------------(2)---||-------------4-4-------|-----------4-4-------|
|-2---------------(2)---||-2-4---4-x-x-2-2-------|-2-4-4-x-x-2-2-------|
|-0---------------(0)-0-||-0-2---2-x-x-------0-0-|-0-2-2-x-x-------0-0-|


  E F#      B         G
  E E E S S E E E E   Q  Q  E E E S S
|-------------------|-3--3--3-3-3-3-3-|
|-----------4-4-4-0-|-3--3--3-3-3-3-3-|
|---3-3-x-x-4-4-4-0-|-0--0--0-0-0-0-0-|
|---4-4-x-x-4-4-4-0-|-0--0--0-0-0-0-0-|
|---4-4-x-x-2-2-2---|-2--2--2-2-2-2-2-|
|-0-2-2-x-x---------|-3--3--3-3-3-3-3-|
|
| E E E S S E E E E   W
|-------------------|-3---------------|
|-------------------|-3---------------|
|-----------4-4-----|-0---------------|
|-----------4-4-----|-0---------------|
|-2-4-4-x-x-2-2-----|-----------------|
|-0-2-2-x-x-----x-3-|-3---------------|


  D         Dsus4           D
  Q  E. S E E     Q       E E E E +H
|-2--2--2-2-3-----3-----|-3-2-2-2-(2)----||
|-3--3--3-3-3-----3-----|-3-3-3-3-(3)----||
|-2--2--2-2-2-----2-----|-2-2-2-2-(2)----||
|-0--0--0-0-0-----0-----|-0-0-0-0-(0)----||
|-----------------------|----------------||
|-----------------------|----------------||
|
|                         ~
|         |-----3-----|
| H       Q   a Q   a Q   W
|-----------------------|----------------||
|---------7---6s8---6s8-|-7--------------||
|-----------------------|----------------||
|---------7---8s9---8s9-|-7--------------||
|-----------------------|----------------||
|-----------------------|----------------||


 Bridge
  D5    CsusG/B           CsusG/B     Dsus4CsusG/B     D5
  E E E E E E E E   E E E E E E E E   Q  E E E E E E   E E E E E E E E
|-----------------|-----------------|----0-----------|-----------------||
|---3-----3---3---|---3-----3---3---|----3---3---3---|-3---------------||
|---2-----0---0---|---2-----0---0---|-2----0-0---0---|-2-2-2-2-2-2-2---||
|-0---0-----------|-0---0-----------|-0--------0-----|-0-0-0-0-0-0-0---||
|-------3---2-----|-------3---2-----|------3---2-----|---------------0-||
|---------------3-|---------------3-|--------------3-|-----------------||


 3rd Verse
  Bsus4
  S S S S S S  S  S  S  S  S S  S S  S  S
|-0-0-0-0-0-0--0--0--0--0--0-0--0-0--0--0-|
|-0-0-0-0-0-0--0--0--0--0--0-0--0-0--0--0-|
|-9-9-9-9-9-9--9--9--9--9--9-9--9-9--9--9-|
|-9-9-9-9-9-9--9--9--9--9--9-9--9-9--9--9-|
|-----------------------------------------|
|-7-7-7-7-7-7--7--7--7--7--7-7--7-7--7--7-|
|
| Gtr II
|              PM--------------------------
| Q       E    S  S  S  S  E    E    S  S
|-----------------------------------------|
|-------------12-12-12-12-12---12---12-12-|
|-----------------------------------------|
|-----------------------------------------|
|-----------------------------------------|
|-----------------------------------------|


  Badd4
   S S  S  S  S S  S  S  S  S  S S  E  E
|--0-0--0--0--0-0--0--0--0--0--0-0--0--0----|
|--0-0--0--0--0-0--0--0--0--0--0-0--0--0----|
|--8-8--8--8--8-8--8--8--8--8--8-8--8--8----|
|--9-9--9--9--9-9--9--9--9--9--9-9--9--9----|
|-------------------------------------------|
|--7-7--7--7--7-7--7--7--7--7--7-7--7--7----|
|
|----------------------------------------|
|  E    S  S  E    S  S  S  S  E    E  S  S
|-------------------------------------------|
|-12---12-12-12---12-12-12-12-12---12-12-12-|
|-------------------------------------------|
|-------------------------------------------|
|-------------------------------------------|
|-------------------------------------------|


  Asus2add4
   S S  S  S  S S  S  S  S  S  S S  E  E
|--0-0--0--0--0-0--0--0--0--0--0-0--0--0----|
|--0-0--0--0--0-0--0--0--0--0--0-0--0--0----|
|--7-7--7--7--7-7--7--7--7--7--7-7--7--7----|
|--7-7--7--7--7-7--7--7--7--7--7-7--7--7----|
|-------------------------------------------|
|--5-5--5--5--5-5--5--5--5--5--5-5--5--5----|
|
|  PM----------------------------------------
|  E    S  S  E    S  S  S  S  E    E  S  S
|-------------------------------------------|
|-12---12-12-12---12-12-12-12-12---12-12-12-|
|-------------------------------------------|
|-------------------------------------------|
|-------------------------------------------|
|-------------------------------------------|


  Aadd9
   S S  S  S  S S  S  S  S  S  S S  S S  S  S
|--0-0--0--0--0-0--0--0--0--0--0-0--0-0--x--x-|
|--0-0--0--0--0-0--0--0--0--0--0-0--0-0--x--x-|
|--6-6--6--6--6-6--6--6--6--6--6-6--6-6--x--x-|
|--7-7--7--7--7-7--7--7--7--7--7-7--7-7--x--x-|
|---------------------------------------------|
|--5-5--5--5--5-5--5--5--5--5--5-5--5-5--x--x-|
|
|------------------------------------------|
|  E    S  S  E    S  S  S  S  E    E    S  S
|---------------------------------------------|
|-12---12-12-12---12-12-12-12-12---12---12-12-|
|---------------------------------------------|
|---------------------------------------------|
|---------------------------------------------|
|---------------------------------------------|


  G6add4
   S S  S  S  S S  S  S  S  S  S S  S S  S  S
|--0-0--0--0--0-0--0--0--0--0--0-0--0-0--0--0-|
|--0-0--0--0--0-0--0--0--0--0--0-0--0-0--0--0-|
|--5-5--5--5--5-5--5--5--5--5--5-5--5-5--5--5-|
|--5-5--5--5--5-5--5--5--5--5--5-5--5-5--5--5-|
|---------------------------------------------|
|--3-3--3--3--3-3--3--3--3--3--3-3--3-3--3--3-|
|
|  PM------------------------------------------
|  E    S  S  E    S  S  S  S  E    E    S  S
|---------------------------------------------|
|-12---12-12-12---12-12-12-12-12---12---12-12-|
|---------------------------------------------|
|---------------------------------------------|
|---------------------------------------------|
|---------------------------------------------|


  G6
   S S  S  S  S S  S  S  S  S  S S  S S  S  S
|--0-0--0--0--0-0--0--0--0--0--0-0--0-0--x--x-|
|--0-0--0--0--0-0--0--0--0--0--0-0--0-0--x--x-|
|--4-4--4--4--4-4--4--4--4--4--4-4--4-4--x--x-|
|--5-5--5--5--5-5--5--5--5--5--5-5--5-5--x--x-|
|---------------------------------------------|
|--3-3--3--3--3-3--3--3--3--3--3-3--3-3--x--x-|
|
|------------------------------------------|
|  E    S  S  E    S  S  S  S  E    E    S  S
|---------------------------------------------|
|-12---12-12-12---12-12-12-12-12---12---12-12-|
|---------------------------------------------|
|---------------------------------------------|
|---------------------------------------------|
|---------------------------------------------|


  F#7sus4                                                     B     A   D   E5
   S S  S  S  S S  S  S  S  S  S S  S S  S  S    q  Q  H      E E E E E E E E
|--0-0--0--0--0-0--0--0--0--0--0-0--0-0--0--0-|--0----------|-----------2------|
|--0-0--0--0--0-0--0--0--0--0--0-0--0-0--0--0-|--0----------|-4-4---2---3------|
|--4-4--4--4--4-4--4--4--4--4--4-4--4-4--4--4-|--4----------|-4-4---2---2------|
|--4-4--4--4--4-4--4--4--4--4--4-4--4-4--4--4-|--4----------|-4-4---2---0------|
|---------------------------------------------|-------------|-2-2-x-0-x---x----|
|--2-2--2--2--2-2--2--2--2--2--2-2--2-2--2--2-|--2----------|-----x---x---x-0--|
|
|  PM-------------------------------------------|
|  E    S  S  E    S  S  S  S  E    E    S  S    q  Q  H      E E E E E E E E
|---------------------------------------------|-------------|------------------|
|-12---12-12-12---12-12-12-12-12---12---12-12-|-12----------|-4-4---2----------|
|---------------------------------------------|-------------|-4-4---2---7---9--|
|---------------------------------------------|-------------|-4-4---2---7---9--|
|---------------------------------------------|-------------|-2-2---0---5---7--|
|---------------------------------------------|-------------|------------------|


  E                       B     A   D
   Q   E S S E E E  S S   E E E E E E E E   Q   E S S S S E  E  E
|--0---0-0-0-0-0-0--0-0-|-----------2-----|-0---0-0-0-0-0-0--0--0-||
|--0---0-0-0-0-0-0--0-0-|-4-4---2---3-----|-0---0-0-0-0-0-0--0--0-||
|--1---1-1-1-1-1-1--1-1-|-4-4---2---2-----|-1---1-1-1-1-1-1--1--1-||
|--2---2-2-2-2-2-2--2-2-|-4-4---2---0---0-|-2---2-2-2-2-2-2--2--2-||
|--2---2-2-2-2-2-2--2-2-|-2-2-x-0-x---x-0-|-2---2-2-2-2-2-2--2--2-||
|--0---0-0-0-0-0-0--0-0-|-----x---x---x-0-|-0---0-0-0-0-0-0--0--0-||
|
| +H.            Q        E E E E E E E E   H.              +E  E
|-----------------------|-----------------|-0---------------(0)---||
|-----------------------|-4-4---2---7-----|-0---------------(0)---||
|-(9)-------------------|-4-4---2---7-----|-1---------------(1)---||
|-(9)-------------------|-4-4---2---7-----|-2---------------(2)---||
|-(7)------------x\-----|-2-2---0---5---2-|-2---------------(2)-2-||
|----------------x\-----|---------------0-|-0---------------(0)-0-||


 Chorus
  E     F#    B     E     F#      B     E     F#      B
  E S S E S S E E E E   E E E S S E E E E   E E E S S E E E E
|-0-x-x-------------0-|-x-2-2-x-x---------|-------------------|
|-0-x-x-------4-4---0-|-x-2-2-x-x-4-4-4---|-----------4-4-4-0-|
|-1-x-x-3-x-x-4-4---1-|-x-3-3-x-x-4-4-4---|---3-3-x-x-4-4-4-0-|
|-2-x-x-4-x-x-4-4---2-|-x-4-4-x-x-4-4-4---|---4-4-x-x-4-4-4-0-|
|-2-x-x-4-x-x-2-2---2-|-x-4-4-x-x-2-2-2---|---4-4-x-x-2-2-2---|
|-0-x-x-2-x-x-------0-|-x-2-2-x-x-------0-|-0-2-2-x-x---------|
|
| E E   E S S E E E E   E E E S S Q   E E   E E E S S E E E E
|---------------------|-------------------|-------------------|
|---------------------|-----------4-------|-------------------|
|-------3-x-4-4-4-4---|-------4-4-4---x---|-------4-4-4-4-x---|
|-------4-x-4-4-4-4---|-------4-4-4---x---|-------4-4-4-4-x---|
|-2-4---4-x-2-2-2-2-2-|-x-4-x-2-2-2---x---|-x-4-x-2-2-2-2-x---|
|-0-2---2-x---------0-|-x-2-x-----------0-|-x-2-x-----------3-|


  G                 D              Dsus4         D
  Q  Q  E E E S S   Q   E.   S E   E Q      E  E E E +H
|-3--3--3-3-3-3-3-|-2---2----2-2---3-3---|--3--2-2-2-(2)-----||
|-3--3--3-3-3-3-3-|-3---3----3-3---3-3---|--3--3-3-3-(3)-----||
|-0--0--0-0-0-0-0-|-2---2----2-2---2-2---|--2--2-2-2-(2)-----||
|-0--0--0-0-0-0-0-|-0---0----0-0---0-0---|--0--0-0-0-(0)-----||
|-2--2--2-2-2-2-2-|----------------------|-------------------||
|-3--3--3-3-3-3-3-|----------------------|-------------------||
|
| W                 E E E  E   S S E E E   +E  Q   E  Q.   E
|-----------------|---2--------2h3-----0-|-(0)---------------||
|-0---------------|-----3----------------|---------3-------3-||
|-0---------------|--------2-------2-2---|-----2------0------||
|-0---------------|-0--------------0-----|-------------------||
|-----------------|----------------------|-------------------||
|-3---------------|----------------------|-------------------||


  Dsus4
   S  S  S  S  S  S  S  S  S  S  S  S  S  S  S  S
|-10-10-10-10-10-10-10-10-10-10-10-10-10-10-10-10-|
|-10-10-10-10-10-10-10-10-10-10-10-10-10-10-10-10-|
|-12-12-12-12-12-12-12-12-12-12-12-12-12-12-12-12-|
|-12-12-12-12-12-12-12-12-12-12-12-12-12-12-12-12-|
|-------------------------------------------------|
|-10-10-10-10-10-10-10-10-10-10-10-10-10-10-10-10-|


  D
   S  S  S  S  S  S  S  S  S  S  S  S  S  S  S  S
|-10-10-10-10-10-10-10-10-10-10-10-10-10-10-10-10-|
|-10-10-10-10-10-10-10-10-10-10-10-10-10-10-10-10-|
|-11-11-11-11-11-11-11-11-11-11-11-11-11-11-11-11-|
|-12-12-12-12-12-12-12-12-12-12-12-12-12-12-12-12-|
|-------------------------------------------------|
|-10-10-10-10-10-10-10-10-10-10-10-10-10-10-10-10-|


  Dsus4
   S  S  S  S  S  S  S  S  S  S  S  S  S  S  S  S
|-10-10-10-10-10-10-10-10-10-10-10-10-10-10-10-10-|
|-10-10-10-10-10-10-10-10-10-10-10-10-10-10-10-10-|
|-12-12-12-12-12-12-12-12-12-12-12-12-12-12-12-12-|
|-12-12-12-12-12-12-12-12-12-12-12-12-12-12-12-12-|
|-------------------------------------------------|
|-10-10-10-10-10-10-10-10-10-10-10-10-10-10-10-10-|
|
| Gtr II
|  W
|-------------------------------------------------|
|-------------------------------------------------|
|-------------------------------------------------|
|-------------------------------------------------|
|-------------------------------------------------|
|-------------------------------------------------|


  D
   S  S  S  S  S  S  S  S  S  S  S  S  S   S  S  S
|-10-10-10-10-10-10-10-10-10-10-10-10-10--10-10-10--|
|-10-10-10-10-10-10-10-10-10-10-10-10-10--10-10-10--|
|-11-11-11-11-11-11-11-11-11-11-11-11-11--11-11-11--|
|-12-12-12-12-12-12-12-12-12-12-12-12-12--12-12-12--|
|---------------------------------------------------|
|-10-10-10-10-10-10-10-10-10-10-10-10-10--10-10-10--|
|
|  H                       Q           E.        S
|---------------------------------------------------|
|---------------------------------------------------|
|---------------------------------------------------|
|-----------------------------------------------10s=|
|---------------------------------------------------|
|------------------------------------------------8s=|


  Dsus4
   S  S  S  S  S  S  S  S  S  S  S  S  S  S  S  S
|-10-10-10-10-10-10-10-10-10-10-10-10-10-10-10-10-|
|-10-10-10-10-10-10-10-10-10-10-10-10-10-10-10-10-|
|-12-12-12-12-12-12-12-12-12-12-12-12-12-12-12-12-|
|-12-12-12-12-12-12-12-12-12-12-12-12-12-12-12-12-|
|-------------------------------------------------|
|-10-10-10-10-10-10-10-10-10-10-10-10-10-10-10-10-|
|
|  W
|-------------------------------------------------|
|-------------------------------------------------|
|-------------------------------------------------|
|-12----------------------------------------------|
|-------------------------------------------------|
|-10----------------------------------------------|


  D
    S   S  S  S  S  S  S  S  S  S  S  S  S   S  S  S
|--10--10-10-10-10-10-10-10-10-10-10-10-10--10-10-10--|
|--10--10-10-10-10-10-10-10-10-10-10-10-10--10-10-10--|
|--11--11-11-11-11-11-11-11-11-11-11-11-11--11-11-11--|
|--12--12-12-12-12-12-12-12-12-12-12-12-12--12-12-12--|
|-----------------------------------------------------|
|--10--10-10-10-10-10-10-10-10-10-10-10-10--10-10-10--|
|
|  +H.                                   E.        S
|-----------------------------------------------------|
|-----------------------------------------------------|
|-----------------------------------------------------|
|-(12)--------------------------------------------10s=|
|-----------------------------------------------------|
|-(10)---------------------------------------------8s=|


  Dsus4
   S  S  S  S  S  S  S  S  S  S  S  S  S  S  S  S
|-10-10-10-10-10-10-10-10-10-10-10-10-10-10-10-10-|
|-10-10-10-10-10-10-10-10-10-10-10-10-10-10-10-10-|
|-12-12-12-12-12-12-12-12-12-12-12-12-12-12-12-12-|
|-12-12-12-12-12-12-12-12-12-12-12-12-12-12-12-12-|
|-------------------------------------------------|
|-10-10-10-10-10-10-10-10-10-10-10-10-10-10-10-10-|
|
|  W
|-------------------------------------------------|
|-------------------------------------------------|
|-------------------------------------------------|
|-12----------------------------------------------|
|-------------------------------------------------|
|-10----------------------------------------------|


  D
    S   S  S  S  S  S  S  S  S  S  S  S  S   S  S  S
|--10--10-10-10-10-10-10-10-10-10-10-10-10--10-10-10--||
|--10--10-10-10-10-10-10-10-10-10-10-10-10--10-10-10--||
|--11--11-11-11-11-11-11-11-11-11-11-11-11--11-11-11--||
|--12--12-12-12-12-12-12-12-12-12-12-12-12--12-12-12--||
|-----------------------------------------------------||
|--10--10-10-10-10-10-10-10-10-10-10-10-10--10-10-10--||
|
|  +H.                                   E.        S
|-----------------------------------------------------||
|-----------------------------------------------------||
|-----------------------------------------------------||
|-(12)--------------------------------------------10s=||
|-----------------------------------------------------||
|-(10)---------------------------------------------8s=||


 4th Verse
  Dsus4
   S  S  S  S  S  S  S  S  S  S  S  S  S  S  S  S
|-10-10-10-10-10-10-10-10-10-10-10-10-10-10-10-10-|
|-10-10-10-10-10-10-10-10-10-10-10-10-10-10-10-10-|
|-12-12-12-12-12-12-12-12-12-12-12-12-12-12-12-12-|
|-12-12-12-12-12-12-12-12-12-12-12-12-12-12-12-12-|
|-------------------------------------------------|
|-10-10-10-10-10-10-10-10-10-10-10-10-10-10-10-10-|
|
|  W
|-------------------------------------------------|
|-------------------------------------------------|
|-------------------------------------------------|
|-12----------------------------------------------|
|-------------------------------------------------|
|-10----------------------------------------------|


  D
    S   S  S  S  S  S  S  S  S  S  S  S  S   S S S
|--10--10-10-10-10-10-10-10-10-10-10-10-10--10-x-x--|
|--10--10-10-10-10-10-10-10-10-10-10-10-10--10-x-x--|
|--11--11-11-11-11-11-11-11-11-11-11-11-11--11-x-x--|
|--12--12-12-12-12-12-12-12-12-12-12-12-12--12-x-x--|
|---------------------------------------------------|
|--10--10-10-10-10-10-10-10-10-10-10-10-10--10-x-x--|
|
|  +H.                                   E.      S
|---------------------------------------------------|
|---------------------------------------------------|
|---------------------------------------------------|
|-(12)-------------------------------------------9s=|
|---------------------------------------------------|
|-(10)-------------------------------------------7s=|


  Csus4
   S  S  S  S  S  S  S  S  S  S  S  S  S  S  S  S
|--8--8--8--8--8--8--8--8--8--8--8--8--8--8--8--8-|
|--8--8--8--8--8--8--8--8--8--8--8--8--8--8--8--8-|
|-10-10-10-10-10-10-10-10-10-10-10-10-10-10-10-10-|
|-10-10-10-10-10-10-10-10-10-10-10-10-10-10-10-10-|
|-------------------------------------------------|
|--8--8--8--8--8--8--8--8--8--8--8--8--8--8--8--8-|
|
|  W
|-------------------------------------------------|
|-------------------------------------------------|
|-------------------------------------------------|
|-10----------------------------------------------|
|-------------------------------------------------|
|--8----------------------------------------------|


  C
    S   S  S  S  S  S  S  S  S  S  S  S  S   S S S
|---8---8--8--8--8--8--8--8--8--8--8--8--8---8-x-x--|
|---8---8--8--8--8--8--8--8--8--8--8--8--8---8-x-x--|
|---9---9--9--9--9--9--9--9--9--9--9--9--9---9-x-x--|
|--10--10-10-10-10-10-10-10-10-10-10-10-10--10-x-x--|
|---------------------------------------------------|
|---8---8--8--8--8--8--8--8--8--8--8--8--8---8-x-x--|
|
|  +H.                                   E.      S
|---------------------------------------------------|
|---------------------------------------------------|
|---------------------------------------------------|
|-(10)-------------------------------------------7s=|
|---------------------------------------------------|
|--(8)-------------------------------------------5s=|


                                    Bb
  S S S S S S S S S S S S S S S S    S  S S S S S S S S S S S S  S S S
|-6-6-6-6-6-6-6-6-6-6-6-6-6-6-6-6-|--6--6-6-6-6-6-6-6-6-6-6-6-6--6-6-6--|
|-6-6-6-6-6-6-6-6-6-6-6-6-6-6-6-6-|--6--6-6-6-6-6-6-6-6-6-6-6-6--6-6-6--|
|-8-8-8-8-8-8-8-8-8-8-8-8-8-8-8-8-|--7--7-7-7-7-7-7-7-7-7-7-7-7--7-7-7--|
|-8-8-8-8-8-8-8-8-8-8-8-8-8-8-8-8-|--8--8-8-8-8-8-8-8-8-8-8-8-8--8-8-8--|
|---------------------------------|-------------------------------------|
|-6-6-6-6-6-6-6-6-6-6-6-6-6-6-6-6-|--6--6-6-6-6-6-6-6-6-6-6-6-6--6-6-6--|
|
| W                                 +H.                       E.     S
|---------------------------------|-------------------------------------|
|---------------------------------|-------------------------------------|
|---------------------------------|-------------------------------------|
|-8-------------------------------|-(8)------------------------------6s=|
|---------------------------------|-------------------------------------|
|-6-------------------------------|-(6)------------------------------4s=|


  Asus4                             A            D     C   F5
  S S S S S S S S S S S S S S S S   q  Q  H      E E E E E E Q
|-5-5-5-5-5-5-5-5-5-5-5-5-5-5-5-5-|-5----------|-2-2------------||
|-5-5-5-5-5-5-5-5-5-5-5-5-5-5-5-5-|-5----------|-3-3------------||
|-7-7-7-7-7-7-7-7-7-7-7-7-7-7-7-7-|-6----------|-2-2------------||
|-7-7-7-7-7-7-7-7-7-7-7-7-7-7-7-7-|-7----------|-0-0---2---3----||
|---------------------------------|------------|-------3---3----||
|-5-5-5-5-5-5-5-5-5-5-5-5-5-5-5-5-|-5----------|-------3---1----||
|
| W                                 q  Q  H      E E E E E E Q
|---------------------------------|------------|-2-2------------||
|---------------------------------|------------|-3-3------------||
|---------------------------------|------------|-2-2------------||
|-7-------------------------------|-7----------|-0-0---2--------||
|---------------------------------|------------|-------3---3----||
|-5-------------------------------|-5----------|-----------1----||


 Outro
    Bb          Bbsus4
  E S S E S S S S S S S S S S   S S S S S S S S S S S S S S S S
|---6-6-6-6-6-6-6-6-6-6-6-6-6-|-6-6-6-6-6-6-6-6-6-6-6-6-6-6-6-6-|
|---6-6-6-6-6-6-6-6-6-6-6-6-6-|-6-6-6-6-6-6-6-6-6-6-6-6-6-6-6-6-|
|---7-7-7-7-7-7-8-8-8-8-8-8-8-|-8-8-8-8-8-8-8-8-8-8-8-8-8-8-8-8-|
|---8-8-8-8-8-8-8-8-8-8-8-8-8-|-8-8-8-8-8-8-8-8-8-8-8-8-8-8-8-8-|
|-----------------------------|---------------------------------|
|---6-6-6-6-6-6-6-6-6-6-6-6-6-|-6-6-6-6-6-6-6-6-6-6-6-6-6-6-6-6-|
|
| E E   E E   E   E   E   S S   E   E   E   E   E   E   E   E
|-----------------------------|---------------------------------|
|---3---------4---------------|-------------1-----------1h==3---|
|-------1---------1-----------|-1-------------------------------|
|---------3-----------1---1h3-|---------3-----------3-----------|
|-1---------------------------|-----1-----------1---------------|
|-----------------------------|---------------------------------|


  Bb                Bbsus4
  S S S S S S S S S S S S S S S S     S S S S S S S S S S S S S S S S
|-6-6-6-6-6-6-6-6-6-6-6-6-6-6-6-6-|---6-6-6-6-6-6-6-6-6-6-6-6-6-6-6-6-|
|-6-6-6-6-6-6-6-6-6-6-6-6-6-6-6-6-|---6-6-6-6-6-6-6-6-6-6-6-6-6-6-6-6-|
|-7-7-7-7-7-7-7-7-7-8-8-8-8-8-8-8-|---8-8-8-8-8-8-8-8-8-8-8-8-8-8-8-8-|
|-8-8-8-8-8-8-8-8-8-8-8-8-8-8-8-8-|---8-8-8-8-8-8-8-8-8-8-8-8-8-8-8-8-|
|---------------------------------|-----------------------------------|
|-6-6-6-6-6-6-6-6-6-6-6-6-6-6-6-6-|---6-6-6-6-6-6-6-6-6-6-6-6-6-6-6-6-|
|
| E   E   E   E   E   E   E   E     a E   E   E   E   E   S S E   E
|---------3-----------4-----------|-----------------------------------|
|-3-----------1-----------1-------|-1h3-----------4-------------------|
|-----1-----------1-----------1---|-----------1---------------1-------|
|---------------------------------|-----------------------1h3---------|
|---------------------------------|-------1-----------1-----------1---|
|---------------------------------|-----------------------------------|


                              |-3-|
  E S S S S E S S S S E S S   S S S E E S S S S S S  S  S S S
|-6-6-6-6-6-6-x-6-6-6-6-6-6-|-6-6-6-6-6-6-6-6-6-6-6--6--6-6-6--|
|-6-6-6-6-6-6-x-6-6-6-6-6-6-|-6-6-6-6-6-6-6-6-6-6-6--6--6-6-6--|
|-8-8-8-8-8-8-x-8-8-8-8-8-8-|-8-8-8-8-8-8-8-8-8-8-8--8--8-8-8--|
|-8-8-8-8-8-8-x-8-8-8-8-8-8-|-8-8-8-8-8-8-8-8-8-8-8--8--8-8-8--|
|---------------------------|----------------------------------|
|-6-6-6-6-6-6-x-6-6-6-6-6-6-|-6-6-6-6-6-6-6-6-6-6-6--6--6-6-6--|
|
|                                   ~
| E E   E   E E   E   E E     E     Q   E   E   S S +E    E
|---------------------------|----------------------------------|
|-------1-------------1-----|---------------1---1-1-(1)--------|
|---------------------------|-------1-------1---1-1-(1)--------|
|-3-----------3---------1---|-3-----3-------3-------------3----|
|---1-------1-----1---------|-----------1-----------------1----|
|---------------------------|----------------------------------|


    Bb
  E E S S S S S S E E E     S S S S S S S S  S  S E S S S S
|-6-6-6-6-6-6-6-6-6-6-6-|---6-6-6-6-6-6-6-6--6--6-6-6-6-6-6-*|
|-6-6-6-6-6-6-6-6-6-6-6-|---6-6-6-6-6-6-6-6--6--6-6-6-6-6-6-*|
|-8-7-7-7-7-7-7-7-7-7-7-|---7-7-7-7-7-7-7-7--7--7-7-7-7-7-7-*|
|-8-8-8-8-8-8-8-8-8-8-8-|---8-8-8-8-8-8-8-8--8--8-8-8-8-8-8-*|
|-----------------------|-----------------------------------*|
|-6-6-6-6-6-6-6-6-6-6-6-|---6-6-6-6-6-6-6-6--6--6-6-6-6-6-6-*|
|
| E E Q       E   E E E   a Q       E   E   +E    E E   E
|-----------------------|-----------------------------------*|
|-----1-------1---3-1---|-----------3---4---(4)---4-3-------*|
|---------------------1-|-3s5---------------------------1---*|
|-x-3-------------------|-----------------------------------*|
|-----------------------|-----------------------------------*|
|-----------------------|-----------------------------------*|


Duration Legend
---------------
W - whole; H - half; Q - quarter; E - 8th; S - 16th; T - 32nd; X - 64th; a - acciaccatura
+ - note tied to previous; . - note dotted; .. - note double dotted
Uncapitalized letters represent notes that are staccato (1/2 duration)
Irregular groupings are notated above the duration line
Duration letters will always appear directly above the note/fret number it represents the
duration for.  Duration letters with no fret number below them represent rests.  Multi-
bar rests are notated in the form Wxn, where n is the number of bars to rest for.  Low
melody durations appear below the staff

Tablature Legend
----------------
 h   - hammer-on
 p   - pull-off
 b   - bend
 pb  - pre-bend
 r   - bend release (if no number after the r, then release immediately)
 /\  - slide into or out of (from/to "nowhere")
 s   - legato slide
 S   - shift slide
  - natural harmonic
[n]  - artificial harmonic
n(n) - tapped harmonic
 ~   - vibrato
 tr  - trill
 T   - tap
 TP  - trem. picking
 PM  - palm muting
\n/  - tremolo bar dip; n = amount to dip
 \n  - tremolo bar down
 n/  - tremolo bar up
/n\  - tremolo bar inverted dip
 =   - hold bend; also acts as connecting device for hammers/pulls
 <>  - volume swell (louder/softer)
 x   - on rhythm slash represents muted slash
 o   - on rhythm slash represents single note slash

Misc Legend
-----------
 |  - bar
||  - double bar
||o - repeat start
o|| - repeat end
*|  - double bar (ending)
 :  - bar (freetime)
 $  - Segno
 &  - Coda
Tempo markers -  = BPM(8/16=s8/s16), where s8 = swing 8ths, s16 = swing 16ths



Ever since I was a young boy,
I've played the silver ball.
From Soho down to Brighton
I must have played them all.
But I ain't seen nothing like him
In any amusement hall.
That deaf, dumb and blind kid
Sure plays a mean pinball!

He stands like a statue,
Becomes part of the machine.
Feeling all the bumpers
Always playing clean.
Plays by intuition,
The digit counters fall
That deaf, dumb and blind kid
Sure plays a mean pinball!

He's a pinball wizard
There has to be a twist.
A pin ball wizard,
S'got such a supple wrist.

How do you think he does it?
I don't know!
What makes him so good?

Ain't got no distractions
Can't hear no buzzers and bells,
Don't see no lights a flashin'
Plays by sense of smell.
Always gets a replay,
Never seen him fall,
That deaf, dumb and blind kid
Sure plays a mean pinball.

I thought I was
The Bally table king.
But I just handed
My pinball crown to him.

Even on my favorite table
He can beat my best.
His disciples lead him in
And he just does the rest.
He's got crazy flipper fingers
Never seen him fall.
That deaf, dumb and blind kid
Sure plays a mean pinball!

            
            
Suggest correction
Creating personal tab
Creating personal tab
You can edit any tab online and save it as your Personal.

You can edit, replace or remove any tab part or add personal notes – all changes will be seen only by you.

Personal tabs can be accessed anytime from any device, even offline.
Learn more »
Give kudos to tab author, rate the tab!
1 2 3 4 5
comments
print report bad tab
guest
You may want to rate the tab now too:
select rating
Wanna post a correction for this tab? Suggest correction