Oops, an error
Loading. Please wait.

Pure And Easy chords

version 1
version 1

Whole song

Interactive

by The Who
16,475 views 39 this week
1 commentread comment
1 2 3 4 5
x 4
add to favorites
×
Save as Personal and add changes to this tab that will be seen only by you. Learn more ›
×
You can save this tab as Personal to edit and correct it or add notes. All changes will be seen only by you. Learn more »
launch autoscroll
font size
0
reset
transpose
0
reset
simplify chords
display chords
guitar tuner
edit
Autoscroll
slow
fast
+/-
esc
set tempo
stop
Author
Unregistered
Strumming
There is no strumming pattern for this song yet. and get +5 IQ
[Intro]
C G/C  F9/C G/C

[Verse]
      C          G/C   Fadd9/C  G/C
There once was a note, pure and easy
C          G/C         Fadd9/C G/C      C  
G/C  Fadd9/C  G/C C G/C  Fadd9/C
 G/C
Playing so free like a breath, rippling by
Fmaj7                  Dm6[or Dm/F]
The note is eternal, I hear it, it sees me,
Fmaj7                   Dm6     C  G/C  
Fadd9/C  G/C   C G/C  Fadd9/C  G/C
Forever we blend as, forever we die

[Chorus]
  C              Dm    F          G
I listened and I heard music in a word,
e|------------------------------------------|
B|----------------------------------3-------|
G|--------------------------------4---------|
D|--------------3-5/7----3----3-5-----------|
A|--3-------3-5-----------------------------|
E|------------------------------------------|

    C              Dm             F     G
and words when you played your guitar

    Dm               Em            G              Am
The noise that I was hearing was a million people cheering
e|----------------------------------------------------------------|
B|----------------------------------------------------------------|
G|------------------------------------------------5--7/9--7-------|
D|------------------5-7/9------------5--------5-7-----------------|
A|----5--------5-7------------------------------------------------|
E|----------------------------------------------------------------|

G                        C/G         G7           C/G
And a child flew past me riding in a star
G|-----------------7-------8------8-----7-----7-----8-----7-------|
D|------------8------8-------8------8-----8-----8-----8-----8-----|
A|--------------7------7-------9------9-----7-----7-----9-----7---|
E|----------------------------------------------------------------|

[Verse]
   Dsus4            D
As people assemble, civilization
   G                G7  C/G    G     G7  
C/G G
Is trying to find a new way to die
    Am                Emsus4       E
But killing is really merely scene changer
Am                 Dm/F                 Am      Dm/F 
 Fmaj7/A Am
All men are bored      with other men's lives

[Chorus]
  C              Dm    F          G
I listened and I heard music in a word,
e|------------------------------------------|
B|----------------------------------3-------|
G|--------------------------------4---------|
D|--------------3-5/7----3----3-5-----------|
A|--3-------3-5-----------------------------|
E|------------------------------------------|

    C              Dm             F     G
and words when you played your guitar

    Dm               Em            G              Am
The noise that I was hearing was a million people cheering
e|----------------------------------------------------------------|
B|----------------------------------------------------------------|
G|------------------------------------------------5--7/9--7-------|
D|------------------5-7/9------------5--------5-7-----------------|
A|----5--------5-7------------------------------------------------|
E|----------------------------------------------------------------|

G                        C/G         G7           C/G
And a child flew past me riding in a star
G|-----------------7-------8------8-----7-----7-----8-----7-------|
D|------------8------8-------8------8-----8-----8-----8-----8-----|
A|--------------7------7-------9------9-----7-----7-----9-----7---|
E|----------------------------------------------------------------|

[Verse]
Gas on the hillside, oil in the teacup
Watch all the chords of life lose their joy
Distortion becomes somehow pure in its wildness
The note that began all can also destroy.
   Am          C/A (Am7)    Dm/F                   G/A
We all know success when we all find our own dream
And our love is enough to knock down any wall
And the future's been seen as men try to realize
Am         Am7/A         Dm/F    G/A
The simple secret of the note in us all

[Instrumental]
Am     C      F    G

[Chorus]
  C              Dm    F          G
I listened and I heard music in a word,
e|------------------------------------------|
B|----------------------------------3-------|
G|--------------------------------4---------|
D|--------------3-5/7----3----3-5-----------|
A|--3-------3-5-----------------------------|
E|------------------------------------------|

    C              Dm             F     G
and words when you played your guitar

    Dm               Em            G              Am
The noise that I was hearing was a million people cheering
e|----------------------------------------------------------------|
B|----------------------------------------------------------------|
G|------------------------------------------------5--7/9--7-------|
D|------------------5-7/9------------5--------5-7-----------------|
A|----5--------5-7------------------------------------------------|
E|----------------------------------------------------------------|

G                        C/G         G7           C/G
And a child flew past me riding in a star
G|-----------------7-------8------8-----7-----7-----8-----7-------|
D|------------8------8-------8------8-----8-----8-----8-----8-----|
A|--------------7------7-------9------9-----7-----7-----9-----7---|
E|----------------------------------------------------------------|

[Verse]
[Today is the day when sound curdles mountains
Flowing and blowing each man it its wake
Destroying itself in the end with vibration
There's nothing on earth its challenge can take
Excepting one note]

[Outro]
 There once was a note...  listen
       A    A     A/G      G D/F#
e||------------------------3--2--------------||
B||------------------------3--3--------------||
G||---------2~-------------0--2--------------||
D||---------2~-------------0--0--------------||
A||----0----0~-------------------------------||
E||---------------3^--------------0--2---3^--||

            
            
Suggest correction
Creating personal tab
Creating personal tab
You can edit any tab online and save it as your Personal.

You can edit, replace or remove any tab part or add personal notes – all changes will be seen only by you.

Personal tabs can be accessed anytime from any device, even offline.
Learn more »
comments
print report bad tab
1 comment total.
0 reply
theductor08 10 Feb 08, 2016 05:03 PM

Beautiful chords and tab! Thank you for the effort.

guest
Wanna post a correction for this tab? Suggest correction