Oops, an error
Loading. Please wait.

Who Are You tab

version 3
version 3

Whole song

Interactive

by The Who
1,779 views 3 this week
no commentswrite comment
1 2 3 4 5
3 more votes to show rating
add to favorites
×
Save as Personal and add changes to this tab that will be seen only by you. Learn more ›
×
You can save this tab as Personal to edit and correct it or add notes. All changes will be seen only by you. Learn more »
launch autoscroll
font size
0
reset
how to read this tab
guitar tuner
backing track
0:00
0:00
edit
Autoscroll
slow
fast
+/-
esc
set tempo
stop
Author
Difficulty
All the credit for this goes to the guys at Whotabs.

Who Are You | guitar tab
By The Who
>From Who Are You, 1978
Written by Pete Townshend, (c)1978 Eel Pie Publishing

#----------------------------------PLEASE NOTE---------------------------------#
#This file is the author's own work and represents their interpretation of the #
#song. You may only use this file for private study, scholarship, or research. #
#------------------------------------------------------------------------------#

==============                                                           w  w
transcribed by         1994-12-30          Whotabs                       h  w
litgo@aol.com     rev1 1999-12-24          www.thewho.net/whotabs        o  w
==============    rev2 2010-05-06                                        t  .
                                                                         a  t
[note: leads, patterns and timing are approximate]                       b  h
                                                                         s  e
                                                                            w
[intro]                                                                     h
|E [no chord]                                                               o
|--------|----|---------------|-----------------|---------|  .
|--------|--14|^------14^\p12~|----14^\p12-12---|----------- .                 n
|--------|----|---------------|--------------12^|----------- .                 e
|--------|----|---------------|-----------------|14--------- .                 t
|--------|----|------------(12|)----------------|----------- .                 /
|--------|----|---------------|-----------------|------12--- .                 w
                                                                            h
|-------15-|-15-15-15--------|-------12-----------|----------------|        o
|----15^15^|-15^15^15-15^\^--|-----------------12-|----------------|        t
|----14^14^|-14^14^14-14^\^--|---------14^\p12----|12^-------------|        a
|----------|-----------------|--------------------|--14-------8----|        b
|----------|-----------------|--------------------|------12\-/8----|        s
|----------|-----------------|--------------------|----------------|

|-----------------|-----------|-3---2----|
|-0--3^-3^--3^----|--0--------|-3---3----|
|-0--2^-2^--2^----|--0--------|-0---3----|
|-----------------|-----3/\---|-0---0----|
|-----------------|-----3/\---|----------|
|-----------------|-----------|-3---2----|

[chorus]

[intro leads]
|E   D/E|     |A/E E    A/E E|     |E      D/E|      |A/E E    A/E  E|     |
 Who  are you, who who, who who     Who    are you, who who, who  who
|-------|-----|--------------|-----|0---------|------|--------------0|-----|
|----<7>|-----|10--9----10--9|~~\--|0------<7>|------|14--12\--5----5|-----|
|-------|-----|9---9----9---9|~~\--|1------<7>|------|14--13---6----4|--\--|
|-------|-----|---------11---|-----|-------<7>|------|14--14---7----6|--\--|
|-------|-----|--------------|-----|----------|------|---------------|-----|
|0------|----0|--------------|-----|-----0----|-----0|------------0--|----0|
             [finger pick                                                  ]
|[acoustic]                                                                |
|-------|-----|--------------|-----|----------|------|---------------|-----|
|9-----7|-----|10--9----10--9|-----|---------7|------|10--9----5----5|-----|
|9-----7|-----|9---9----9---9|-----|9--------7|------|9---9----6----4|-----|
|-------|-----|11--9----11--9|-----|9---------|------|11--9----7----6|-----|
|-------|-----|--------------|-----|----------|------|---------------|-----|
|-------|-----|--------------|-----|----------|------|---------------|-----|


|E  D/E|       |A/E E    A/E E |     |E  D/E|       |A/E E    A/E E |      |
 Who  are you, who who, who who      Who are you, who who, who who
|0----2|-------|---------------|--0--|------|-------|---------------|------|
|-----3|-------|2---0----5---5-|--2-0|-----3|-------|10--9\---5---5-|------|
|-----2|-------|2---1/---6---4-|--2-1|-----2|-------|9---9\---6---4-|-/----|
|------|-------|---------------|-----|------|-------|11--9\---7---6-|------|
|------|-------|---------------|-----|------|-------|---------------|------|
|--2---|------2|---------------|-0-0-|--2---|----3/8|-------0-------|---12\|
[finger pick                                                        ]      |
|[acoustic]                                                                |
|------|-------|---------------|-----|------|-------|---------------|------|
|9----7|-------|10--9----10--9-|-----|9----7|-------|10--9----5----5|------|
|9----7|-------|9---9----9---9-|-----|9----7|-------|9---9----6----4|------|
|-----7|-------|11--9----11--9-|-----|9----7|-------|11--9----7----6|------|
|------|-------|---------------|-----|------|-------|---------------|------|
|------|-------|---------------|-----|------|-------|---------------|------|


[verse]
|E               |D               |A               |C       G      |
   I woke up in a Soho doorway, a policeman knew my name.   He said,
|----------------|----------------|----------------|----------0----|
|----------------|----------------|----------------|----------0----|
|----9-----------|------7---------|------2---------|5\4-------0----|
|----9-----------|------7---------|------2---------|5\4------------|
|----7-----------|x-----5------/--|------0-------0-|3\2-0-4/5------|
|x-0-------------|x--0------------|--x-------------|------2/3-8\---|
|[acoustic]                                                        |
|0---------------|----------------|----------------|---------------|
|0---------------|----------------|----------------|---------------|
|1---------------|----------------|----------------|---------------|
|2---------------|----------------|----------------|---------------|
|2---------------|----------------|----------------|---------------|
|0---------------|----------------|----------------|---------------|


|E               |D               |A               |C       G      |
 You can go sleep at home tonight if you can get up and walk away
|----------------|----------------|----------------|---------------|
|----9-----------|----------------|----------------|----------0----|
|----9--------\--|------7---------|---------2------|----------0----|
|----9--------\--|------7---------|---------2------|5\4-----5------|
|----7--------\--|--5---5-----/---|-----0---0----0-|3\2-0-4/5------|
|--0-0-----------|--0-------------|-----0----------|------4/-------|


|E               |D               |A               |C       G      |
 I staggered back to the underground and the breeze blew back my hair
|----------------|----------------|---------5------|---------------|
|----9-----------|----------------|---------5------|----------0----|
|----9-----------|------7---------|---------2------|----------0----|
|----9-----------|------7---------|---------2------|5\4---4/5------|
|----7------/\---|--x---5-------x-|-----0---0----0-|----0-4/5------|
|--0-0-----------|--0-----------x-|----------------|------2/3--9/\/|


|E                    |D                 |
   I remember throwin' punches around and
|---------------------|------------------|
|---------------------|----------------x-|
|------1--------------|---------7------x-|
|------2--------------|---------7------x-|
|------2--------------|----x----5------x-|
|----0-0--------------|------------------|


|A                |  G      D/F#          |
 preachin' from my chair      Well, who are...
|-----------------|--3------2-------------|
|-----------------|--3------3--------x----|
|----------2------|x-0------2--------x----|
|----------2------|x-0------0--------x----|
|----0-----0------|----------------0------|
|----x------------|--3-----(2)-------7\---|

[chorus]
|E           D/E|               |A/E E    A/E E|             |
 You,                                           I really want to
(Who            are   you,       who who, who who)
|---------------|---------------|--------------|-------------|
|--------------3|---------------|10--9----10--9|---11^\------|
|--------------2|----(0)--------|9---9----9---9|---11^\9-----|
|2--------------|---------------|11--9----11--9|----------9--|
|2--------------|---------------|--------------|--x-------x--|
|0-------------2|---------------|--------------|--x-------0--|
|[acoustic in; basic chorus pattern]                         |
|---------------|---------------|--------------|-------------|
|9-------------7|---------------|10--9----10--9|-------------|
|9-------------7|---------------|9---9----9---9|---99-99-99--|
|9-999-999-999-7|-777-777-777-77|11--9-9--11--9|---99-99-99--|
|7-777-777-777-7|-777-777-777-77|--------------|-------------|
|---------------|---------------|--------------|--0--0--0--0-|


|E   D/E|       |A/E E    A/E  E|                |
 know                               Tell me who are
(Who   are you,  who who, who who)
|-------|-------|-------------12|----------------|
|----x-9|-------|---------14--12|----------------|
|9---x-9|-------|---------14--13|-------14^\-12^-|
|----x-7|-------|2---2----14--14|----------------|
|------7|-----2-|4---2----------|----------------|
|0------|-----0-|0---0--------12|--12-12--------0|


|E  D/E|       |A/E E    A/E E|            |
 you,                        'Cause I really want to
(Who  are you,  who who, who who)
|------|-------|--------------|------------|
|0----3|-----0-|2------------0|------------|
|1----2|-----0-|2--------2---1|----2^\(1)--|
|2----0|-----0-|2--2---x-2---2|----------2-|
|2-----|-------|0--2---x-0---2|------------|
|0----2|-------|---4---------0|---0--------|


|E  D/E|       |A/E E    A/E E|               |
 know
(Who  are you,  who who, who who)
|------|-------|--------------|--------------||
|-----3|-------|----9---------|--------------||
|-----2|-----x-|9---9--x-2----|--------------||
|-----0|-----x-|11--9--x-2---2|--------------||
|------|-----x-|12-------0---2|--------------||
|0----2|-------|9------------0|-----0-3^-2-3^||


[verse]
|E               |D               |A               |C       G          |
 I took the tube back out of town, back to the rollin' pin
|----------------|----------------|----------------|----------0--------|
|----------------|----------------|----------------|----------0--3h5p0-|
|----/9----------|------7---------|---------2------|-------------------|
|----/9----------|------7---------|---------2------|5\4----------------|
|2---/7-/\-------|---x--5---/\----|----0----0------|3\2---4/5----------|
|0-x-------------|---x------------|----------------|----0-2/3----------|


|E                       |D              |A               |C       G          |
 I felt a little like a dying clown with a streak of rin tin tin
|------------------------|---------------|----------------|-------------------|
|------------------------|---------------|----------------|-------------------|
|---------9--------------|------7--------|---------2------|5\4-------0--------|
|---------9--------------|------7--------|---------2------|5\4---4/5-0--------|
|7\-------7--------------|------5------\-|-----x---0------|3\2---4/5----7/\---|
|-------0----------------|---0-----------|----------------|------2/3----------|


|E               |D               |A                     |C       G      |
 I stretched back and I hiccupped and looked back on my busy day
|----------------|----------------|----------------------|----------0----|
|----------------|----------------|----------------------|----------0----|
|----9-----------|------7---------|---------------2------|x\x-------0----|
|----9-----------|------7---------|---------------2------|5\4---4/5------|
|----7-----------|------5--------\|-----------x---0------|3\2-0-4/5------|
|--0-------------|---0------------|----------------------|------2/3------|


|E                    |D                 |A                |G   D                |
Eleven hours in the tin pan, god, there's got to be another way.     Well, who are
|---------------------|------------------|-----------------|3---2----------------|
|------9--------------|------------------|----------------x|3---2----------------|
|------9--------------|---------7--------|----------2-----x|0---3----------------|
|------9--------------|---------7--------|----------2------|0---0-----2----------|
|------7--------------|----5----5----\---|----x-----0------|--------x-0----------|
|--0---0--------------|----x-------------|----x------------|3-------x-----3^---0-|


[repeat chorus]
|E       D/E|                     |A/E E    A/E E|                  |
 you,             I really want to know                  Oh, who are
(Who       are you,                who who, who who)
|-----------|----------12-12------|--------------|------------------|
|----x-x-9-x|--10-10-x-x-x--------|10--9--------9|---11^\9-11^\-----|
|----x-x-9-x|--11-11-x-x-x---x----|9---9--x-9---9|---11^\9-11^\9----|
|----x-x-9-x|--12-12-x-x-x-x-x--11|11--9--x-11--9|------------------|
|2----------|--------x-x-x-x-x-x--|---------12---|--------------11--|
|0---------x|-----12--------------|--------------|------------------|
|[acoustic; repeat chorus pattern]                                  |


|E                  D/E|           |A/E E         A/E   E    |                        |
 You                                                          Come on, tell me who are
(Who                 are you,       who   who,    who  who)
|------12-12---12----10|-----------|-------------------------|------------------------|
|---9--9--9--x-9--x--7-|7------x---|14-14-12------14-14-12---|14-12-----14-12---------|
|---9--9--9--x-9--x--7-|7--x---x---|14-14-12h13---14-14-12h13|14-12h13--14-12h13------|
|9--9--9--9--x-9--x--x-|7--x---x---|14-14-12------14-14-12---|14-12-----14-12---------|
|--------------------x-|7--x-7-7-7-|-------------------------|------------------------|
|0---------------------|-----------|-----------12------------|--------12--------12-12-|


|E                  D/E|            |A/E E         A/E E  |                      |
 You                                                          Oh, who the fuck are
 (Who                 are you,       who who,     who  who)
|12----12-12---12------|------------|---------------------|----------------------|
|12----12-12-x-12-x--10|--x--x-x----|---9----------2---0--|----------------------|
|13-xx-13-13-x-13-x--11|--x--x-x-11-|9--9----------2^--1--|----------------------|
|14-xx-14-14-x-14-x--12|--x--x-x-12-|11-9----------x---x-x|2---------------------|
|----12----------------|------------|----------x---x---x-x|0----2----------------|
|12----------12---12---|------10-10-|----------x---------0|--3^-0-3^-0-3^-0------|


|E     D/E|       |A/E E    A/E  E|
 You
(Who    are you,  who who, who who
|--------2|-------|---------------|
|0-------3|-------|---------------|
|4-------2|-------|---------------|
|2-------0|-------|---2-----2-----|
|2---/----|-------|---2-----0--2--|
|---------|-------|---0h3-3--3-0--|


[interlude]
|-------------||------------|-------|------|----------|--------|
|-x-14^\-12^--||---------0--|~---<7>|~~~~~~|~~--------|-------0|
|-x-14^\-12^--||2~------<12>|~---<7>|~~~~~~|~~--------|-------0|
|-x---------12||2~------<12>|~---<7>|~~~~~~|~~--------|--------|
|-------------||0~----------|-------|------|----------|--------|
|-------------||------------|-------|------|----(7)/12|\-0-----|
[acoustic]    ||                                               |
|-------------||0-----------|-------|------|----------|--------|
|-----------2-||0-----------|------0|------|----------|--------|
|-----------2-||1----------2|-------|------|----------|--------|
|-----------2-||2----------2|-------|------|----------|--------|
|-----------0-||2----------0|-------|------|----------|--------|
|-------------||0-----------|-------|------|----------|--------|


[acoustic solo; approx patterns and timing; chords implied by synth]
(A/E E A/E E |E)                        (D/E)                |
|------------|------------------------------|----------------|
|------------|------------------------------|----------------|
|------------|------------------------------|----------------|
|------------|------------------------------|-----------2----|
|------------|5h7/7/7/7/7/7/7/7/7/7/7/7/7/7-|7\5\4-0---------|
|-----------0|------------------------------|--------3^--0---|
|[electric]                                                  |
|------------|---------------------------<7>|----------------|
|------------|------------------------------|----------------|
|------------|------------------------------|----------------|
|------------|------------------------------|----------------|
|------------|------------------------------|----------------|
|------------|------------------------------|----------------|


(D)          (B)      (A A)(E)          (D)|               |
|-0---0------|----0--0----|---0---0--------|----0----------|
|---0---0----|--/--2--2--/|(3)-3----0------|(5)--5---------|
|------------|------------|----------------|---------------|
|---2------2-|--/4--4----/|5----5----------|7------x-------|
|------------|------------|------------x(7)|---------0-0-0-|
|------------|------------|----------------|---------------|


(A/E)  (E)      (A/E)       (E)  |                              (E)           (D/E)
|--------------------------------|------------------------------|-----------------|
|--------------------------------|------------------------------|-----------------|
|--------------------------------|------------------------------|-----------------|
|--------------------------------|5h6---------------------------|-----------------|
|5/7/7/7/7/7/7/7/7/7/7/7/7/7/7/7-|----0-5-7-5^-0-0-5-7-5^-0-----|-5---7-----------|
|--------------------------------|--------------------------7^-0|---0---x--0-0-0--|


|                          (A/E)   (E)     (A/E)  (E)  |                       |
|--------------------------|---------------------------|-----------------------|
|--------------------------|---------------------------|-----------------------|
|--------------------------|---------------------------|-----------------------|
|----------5h6---------5h6-|----------5h6----------5h6-|----------5h6----------|
|5/7-7/7/7----7x-5/7/7x----|7x-5/7/7-x---7x-5/7/7-0----|7x-5/7/7-0---7x-5/7/7--|
|--------------------------|---------------------------|-----------------------|


(E)                      (D/E)                    |
|----------------------------|--------------------|
|----------------------------|--------------------|
|----------------------------|--------------------|
|----------------------------|-----5/6/7-----5/6/7|
|----x/7/7/7/7/7/7-7-7---7---|5/6/7-----5/6/7-----|
|0---------------------------|--------------------|


|A/E)    (E)     (A/E)     (E)  (E)                                 |
|-------------------------------|-----------------------------------|
|-------------------------------|-----------------------------------|
|-------------------------------|-----------------------------------|
|-----6/7/7------5/6/7-----5/6/7|------5/6/7-----5/6/7----0-5/6/6/7-|
|5/7/7------5/6/7-----5/7/7-----|-5/6/7-----5/7/7------5/6/7--------|
|-------------------------------|-----0-----------------------------|


[electric]
|   E   |    G D  |     E    |   G D  |   E    |   G D   |    E    |    G  D    |
                                          Who..........................are you
|-------|----3-2--|----------|---3-2--|--------|-----2---|---------|------------|
|-------|----3-3--|----------|---3-3--|--------|---3-3---|----0----|-------3----|
|-------|----0-2--|----------|x--0-2--|--------|---0-2---|----1----|----0--2----|
|---2---|----0-0--|-----2----|x--0-0--|---2----|---0-----|----2----|----0--0-(0)|
|---2---|---------|-----2----|--------|---2----|--------/|2---2----|-------0----|
|---0---|----3----|/\---0----|---3----|/\-0----|--(3)----|----0----|----3-------|
|[acoustic]                                                                     |
|---0---|----3-2--|-----0----|---3-2--|---0----|-----2---|----0----|------------|
|---0---|----3-3--|-----0---x|---3-3--|---0----|---3-3---|----0----|-------3----|
|---1---|----0-2--|-----1---x|---0-2--|x--1----|---0-2---|x---1----|x---0--2----|
|---2---|----0-0--|-----2---x|---0-0--|x--2---x|---0-----|x---2----|x---0--0----|
|---2---|---------|x----2----|--------|---2----|---------|----2----|------------|
|---0---|x---3----|x----0----|---3----|---0----|---3-----|----0----|------------|


[interlude]
|E   E6  E |  E6  E   E6  |E   E6  E |  E6  E   E6 |
|Who wa-ooh...  wa who wa...Who wa-ooh..wa who     |
|12--------|--------------|----------|-------------|
|9---------|--------------|9---12--9-|--12--9---12-|
|9---------|--------------|9---9---9-|--9---9---9--|
|9---------|--------------|9---11--9-|--11--9---11-|
|----------|--------------|----------|-------------|
|0---------|--(0)---------|--0---0---|-0---0--0-0--|
|[acoustic pattern; approx strumming pattern]      |
|                     //  |    //  / |/ //  / / ///|
|----------|--------------|----------|-------------|
|12--12--9-|--12--9---12--|9---12--9-|--12--9---12-|
|----9---9-|--9---9---9---|9---9---9-|--9---9---9--|
|----11--9-|--11--9---11--|9---11--9-|--11--9---11-|
|----------|--------------|----------|-------------|
|----------|--------------|----------|-------------|


|E   E6  E |  E6  E  E6  |E   E6  E |  E6  E   E6 |
.Who wa-ooh...wa who wa...Who wa-ooh...wa who
|----------|-------------|----------|-------------|
|9---12--9-|--12--9--12--|9---12--9-|--12--9------|
|9---9---9-|--9---9--9---|9---9---9-|--9---9------|
|9---11--9-|--11--9--11--|9---11--9-|--11--9------|
|----------|-------------|----------|-------------|
|--0--0-0--|0--0-0--0----|--0--0-0--|0---0--------|
|[acoustic pattern]                               |
|/// //  //|  /// /// // |//  /// //|/ //  //  // |
|----------|-------------|----------|-------------|
|9---12--9-|--12--9--12--|9---12--9-|--12--9---12-|
|9---9---9-|--9---9--9---|9---9---9-|--9---9---9--|
|9---11--9-|--11--9--11--|9---11--9-|--11--9---11-|
|----------|-------------|----------|-------------|
|----------|-------------|----------|-------------|


|E   E6     E |  E6  E  E6  |E   E6   E |  E6  E   E6 |
.Who wa-ooh...   wa who wa...Who wa-ooh... wa who
|-------------|-------------|-----------|-------------|
|----14-14--16|16-----------|-----------|-------------|
|-------------|----13-13--13|11-11/13---|13~~~--------|
|-------------|-------------|-----------|-------------|
|-------------|-------------|-----------|-------------|
|-------------|-------------|-----------|-------------|
|[acoustic]                                           |
|/   //    // |  /// /// // |//  /// // |/ //  //  ///|
|-------------|-------------|-----------|-------------|
|9---12----9--|--12--9--12--|9---12--9--|--12--9---12-|
|9---9-----9--|--9---9--9---|9---9---9--|--9---9---9--|
|9---11----9--|--11--9--11--|9---11--9--|--11--9---11-|
|-------------|-------------|-----------|-------------|
|-------------|-------------|-----------|-------------|


|E   E6     E |  E6   E   E6  |E     E6      E    |E6  E  E6 |
.Who wa-ooh...   wa  who  wa...Who   wa-   ooh...  wa  who
|-------------|---------------|-------------------|----------|
|----14-14--16|16-------------|-------------------|----------|
|-------------|-----13-13---15|15-16-15-16~~~~~---|----------|
|-------------|---------------|-------------------|----------|
|-------------|---------------|-------------------|----------|
|-------------|---------------|-------------------|----------|
|[acoustic]                                                  |
|    ///   /  |  ///  /   /   |/     ///     /   /|//  /   / |
|-------------|---------------|-------------------|----------|
|----12----9--|--12---9---12--|------12------9----|12--9---12|
|----9-----9--|--9----9---9---|------9-------9----|9---9---9-|
|----11----9--|--11---9---11--|9-----11------9----|11--9---11|
|-------------|---------------|-------------------|----------|
|0-------0----|-------0-------|0------------------|----------|


|E   E6     E |  E6   E   E6  |E     E6      E    |E6   E   E6|
.Who wa-ooh...   wa  who  wa...Who   wa-   ooh...  wa ..who.
|-------------|-----14-14---14|14-16-14-16--------|-----------|
|----14-14--16|16/------------|-------------------|-----------|
|-------------|---------------|-------------------|-----------|
|-------------|---------------|-------------------|-----------|
|-------------|---------------|-------------------|-----------|
|-------------|---------------|-------------------|-----------|
|[acoustic]                                                   |
|    ///   /  |  ///  /   /   |/     ///     /    |///  /   / |
|-------------|---------------|-------------------|-----------|
|----12----9--|--12---9---12--|------12------9----|12---9---12|
|----9-----9--|--9----9---9---|------9-------9----|9----9---9-|
|----11----9--|--11---9---11--|9-----11------9----|11---9---11|
|-------------|---------------|-------------------|-----------|
|0------------|-------0-------|0------------------|-----------|


|E   E6  E |  E6 E  E6 |E     E6      E    E6   E            |
.Who wa-ooh..wa who wa..Who   wa-   ooh...  wa who
|----------|-----------|16-14-16----------|------------------|
|----------|-----------|---------14-12-14-|------------------|
|----------|-----------|------------------|-13-11-13---------|
|----------|-----------|------------------|----------11-9----|
|----------|-----------|------------------|------------------|
|----------|-----------|------------------|---------------12\|
|[acoustic]                                                  |
|/   /// / |  /// / /  |/     ///     /   |//   /            |
|----------|-----------|------------------|------------------|
|----12--9-|--12--9-12-|9-----12------9---|12---9------------|
|----9---9-|--9---9-9--|9-----9-------9---|9----9------------|
|----11--9-|--11--9-11-|9-----11------9---|11---9------------|
|<7>-------|-----------|------------------|------------------|
|<7>-------|-----------|------------------|------------------|


|E   E    |   G D |E    E    |     G D   |E   E      |   G D   |E  E    |   G D |
|----0----|---3-2-|----------|-------2---|-----------|---3-2---|--------|---3-2-|
|----0----|---3-3-|--------x-|x----3-3---|---/9------|-x-3-3---|------x-|---3-3-|
|---(4)---|x--0-2-|--------xx|x----0-2---|-7-/9------|-x-0-2---|------xx|x--0-2-|
|----2----|x--0-0-|x-------xx|x----0-0---|-7-/9------|x--0-0---|------xx|x--0-0-|
|----2----|-------|2----2----|-----------|-7-/7------|x--------|---7----|-------|
|0---0----|--(3)--|3^-0-0----|-----3-----|--------10\|--(3)----|0--0----|---3---|
|[acoustic]                                                                     |
|----0----|---3-2-|-----0----|-------2---|----0------|---3-2---|---0----|---3-2-|
|----0----|---3-3-|-----0----|-----3-3---|----0------|---3-3---|---0----|---3-3-|
|---(4)---|---0-2-|-----4----|-----0-2---|----4------|---0-2---|---4----|---0-2-|
|----2----|---0-0-|-----2----|-----0-0---|----2------|---0-0---|---2----|---0-0-|
|----2----|-------|-----2----|-----------|----2------|---------|---2----|-------|
|0---0----|---3---|-----0----|-----3-----|0---0------|0--3-----|0--0----|0--3---|


[repeat chorus; piano solo]
|E     D/E|         |A/E E         A/E E |                   |
(Who,   are you,     who who,      who who)
|---------|---------|--------------------|-------------------|
|---------|---------|14--12--------------|--14----12---------|
|---------|---------|14--12^-------------|--14----12-12^-----|
|<12>-----|---------|--------------------|-----------0--14-12|
|<12>-----|---------|--------------------|-------------------|
|<12>-----|-------12|--x------12-x-12-0-x|12-12-12-----------|
|                                        [pm 6th string]     |
|[acoustic]                                                  |
|---------|---------|--------------------|-------------------|
|----9---7|---------|-10-9---------10--9-|-------------------|
|----9---7|---------|--9-9----------9----|-------------------|
|----9---7|---------|--------------------|------------------9|
|---------|---------|--------------------|-------------------|
|0--------|---------|--------------------|-------------------|


|E       D/E|           |A/E E    A/E E|               |
(Who         are you,    who who, who who )
|-----------|-----------|--x------12---|-------12------|
|-----------|-----------|----(15)x-----|15^\^----15^\--|
|------12---|----12-----|--------------|---------------|
|14~~----14-|14----14-14|--------------|---------------|
|-----------|-----------|--------------|---------------|
|-----------|-----------|--------------|---------------|
|                           [muted]                    |
|[acoustic]                                            |
|-----------|-----------|--------------|---------------|
|9---------7|-----------|10-9-----5--5-|---------------|
|9---------7|-----------|-9-9-----6--4-|---------------|
|-----------|-----------|---9-----7--6-|---------------|
|-----------|-----------|--------------|---------------|
|-----------|-----------|--------------|---------------|


|E     D/E|      |A/E E         A/E   E |                         |
(Who    are you,  who who,      who   who)
|12-------|^15\--|-15(^)\--12-----------|-------------------------|
|15^~~~---|------|-------15---15p12-----|-------------------------|
|---------|------|--0--------------12h14|--------12^--------12----|
|---------|------|--0-------------------|-----12----14----------12|
|---------|------|--0-------------------|12h14--------12/14-------|
|---------|------|----------------------|-------------------------|
|[acoustic]                                                       |
|---------|------|-9------------------4-|-------------------------|
|--------7|------|10-9-----------5----5-|-------------------------|
|9-------7|------|-9-9-----------6----4-|-------------------------|
|9-------7|------|11-9-----------7----6-|-------------------------|
|---------|------|----------------------|-------------------------|
|---------|------|----------------------|-------------------------|


|E         D/E |       |A/E E       A/E    E     |           |
                                                Oh, I really wanna
(Who        are you,    who who,    who who)
|--------------|-------|-------------------------|-----------|
|--------------|-------|14--12-----14------14----|---14---14-|
|----------<12>|-------|14--12h13--14------14---x|x--14---14-|
|14~-------<12>|-------|14--12-----14------14---x|x--14---14-|
|--------------|-------|-------------------------|-----------|
|-----0--0-----|-----12|--12-----12--12-12--12---|12---x-x---|
|                   [palm mute                 ]             |
|[acoustic]                                                  |
|--------------|-------|-9---------------4-------|-----------|
|9-----------7-|-------|10--9-------5----5-------|-----------|
|9-----------7-|-------|-9--9-------6----4-------|-----------|
|------------7-|-------|11--9-------7----6-------|-----------|
|--------------|-------|-------------------------|-----------|
|--------------|-------|-------------------------|-----------|


[repeat chorus; drums in]
||E          |D/E            |A/E E    A/E E |                |
  Know                                         I really wanna
 (Who       are you,          who who, who who)
||---12-x-12-|------12-12-12-|----12^--x-----|------12^-------|
||---12-x-12-|x-x---12-12-12-|x-x-12^--x-----|------12^-------|
||9----------|x-x---9--9--x--|x-x--------x-x-|x---------------|
||9----------|x-x-x-------x--|x-x--------x-x-|x---------------|
||-----------|---------------|---------------|----------------|
||x----------|x--------------|---------------|----------------|
||[acoustic, chorus pattern]                                  |


|E        D/E|                 |A/E E    A/E E |                |
 Know                                        Come on tell me who are
(Who       are you,          who who, who who)              (Who...)
|---12-------|-----12-12-12-|----12-12------|12-12-----------|
|---12--xx---|--x--12-12-12-|--x-12-12---12-|12-12-------x-x-|
|9--9---xx--9|--x-----------|9-x-9-------9--|9-----------x-x-|
|9------xx--9|--x-----------|9-x-9-------9--|9-----------x-x-|
|------------|--------------|---------------|----------------|
|0-----------|--------------|---------------|----------------|


|E           D/E|               |A/E E    A/E E |                |
 You                                            'Cause I really wanna know
(Who           are you,          who who, who who)              (Who...)
|---12-12-12----|---------------|---------------|----------------|
|---12-12-12----|----7-x-7------|5x--5~---------|---0------------|
|-9-9--------xx-|x---7-x-7------|6x--4~---x-x---|----2^--------x-|
|-9----------xx-|x---7-x-7------|7x--6~---x-x---|--------------x-|
|---------------|7---7-7---5/7--|---------------|--------------7-|
|0--------------|---------------|---------------|0---------------|


|E             D/E|               |A/E E     A/E E|        |
 Know
(Who             are you,          who who,   who who)
|---12--12--------|---------------|---------------|--------|
|---9---9---------|7---7--7-7-----|5---5----------|--------|
|-x-9-x-9--x-x----|7---7--7-7--x-x|6---4--xxx-x-2-|--------|
|-x-9-x-9--x-9----|x---7--7-7--x-x|7---6--xxx-x-2-|2-------|
|-----x----x-x----|x---7--7-7--7-7|-----------x-0-|2-------|
|0----------------|---------------|---------------|00000000|


[repeat verse]
|E                 |D                     |A                  |C       G     |
   I know there's a place you walked where love falls from the trees
|------------------|----------------------|-------------------|----------0---|
|------------------|----------------------|-------------------|----------0---|
|-----9------------|------7-7-------------|------2--2---------|--------------|
|-----9------------|------7-7-------------|------2--2---------|5\4-----------|
|-----7----/\------|---x--5-5-------------|/\----0--0---------|3\2-0-4/5-----|
|/\0---------------|---x------------------|-------------------|------2/3---/-|


|E                         |D              |A               |C       G          |
   My heart is like a broken cup, I only feel right on my knees
|--------------------------|---------------|----------------|----------0--------|
|--------------------------|---------------|----------------|----------0--------|
|------9-------------------|------7--------|---------2------|5\4----------------|
|------9-------------------|------7--------|---------2------|5\4---4/5----------|
|------7-------------------|------5--------|/\---x---0------|3\2-0-4/5------/\--|
|----0---------------------|---0-----------|----------------|------2/3----------|


|E                 |D                 |A               |C       G      |
   I spill out like a sewer hole,  yet still receive your kiss
|------------------|------------------|----------------|---------------|
|------------------|------------------|----------------|---------------|
|----9-------------|------7-----------|---------2------|5\4-------0----|
|----9-------------|------7-----------|---------2------|5\4-------0----|
|----7----~--------|----5-5-----------|-----x-0-0------|3\2-0-4/5------|
|x-0---------------|--0---------------|----------------|------2/3------|


|E                    |D                  |A           |G        D/F#    G     |
 How can I measure up to anyone now after such a love as this      Well, who are...
|---------------------|-------------------|------------|--3------2-------------|
|---------------------|-------------------|------------|--3------3-------------|
|------9--------------|---------7---------|-----2------|0-0------2-------------|
|------9--------------|---------7---------|-----2------|0-0--------------------|
|7/\---7--------------|---------5---------|0--0-0------|------------------0----|
|------0--------------|----x--0-----------|------------|3-------(2)---------3^-|


[repeat chorus]
||E       D/E|               |A/E E    A/E E |                      |
  You                                          Come one tell me who are
 (Who       are you,          who who, who who)
||-----------|---------------|---------------|----------------------|
||-----------|---------------|10--9----10--9-|---x--9----\----------|
||-----------|---------------|9---9----9---9-|---x--9----\----------|
||-----------|---------------|11--9----11--9-|---x--9----\-------0-0|
||-----------|---------------|---------------|----------------------|
||0----------|---------------|---------------|----------------------|
||[acoustic, chorus pattern]                                        |


|E       D/E|               |A/E E    A/E E |                |
 You                                          Oh I really wanna
(Who       are you,          who who, who who)
|----------0|---------------|---------------|----------------|
|0---------0|---------------|---------------|----------------|
|1---------2|---------------|2--------2---1-|----------------|
|2---------2|---------------|2---2----2---2-|----------------|
|2----------|---------------|0---2----0---2-|----------------|
|0----------|---------------|----0--------0-|----------3^-0--|


|E           D/E|               |A/E E    A/E E |                      |
 know                                            Tell me tell me who are
(Who           are you,          who who, who who)
|---------------|---------------|---------------|----------------------|
|---------------|---------------|---------------|----------------------|
|---------------|-------------x-|2--------------|----------------------|
|---------------|-------------x-|2---2-x--------|----------------------|
|2------------5-|-------5/\---x-|0---2-x--------|----------------------|
|0---------0----|---------------|----0----------|----------------------|


|E       D/E|             |A/E E    A/E    E |            |
 You                                          Come on, come on
(Who       are you,        who who, who   who)
|-----------|-------------|------------------|------------|
|--------<7>|-------------|----9----10-10--9-|------------|
|--------<7>|-------------|----9----9--9---9-|------------|
|--------<7>|-------------|11--9----11-11--9-|------------|
|-----------|-------------|------------------|------------|
|0----------|-------------|------------------|0-----------|


[repeat chorus]
||E               D/E|             |A/E E     A/E E    |                  |
  Who                                                  Oh, who the fuck are
 (Who             are you,          who who,  who who)
||12-12----12-12---10|-----10--10--|-------------------|------------------|
||12-12----12-12---10|x----10-x10--|14--12----14--12---|-x-------x----x--x|
||13-13----13-13---11|x----11-x11--|14--12h13-14--12h13|-14^\12--14^\-x--x|
||14-14----14-14---12|x----12-x12--|14--12----14--12---|-x-------x----x-14|
||-------------------|-------------|---------x---------|------------------|
||-----0-12------12--|12-12------12|---------x---------|------------------|
||[acoustic, chorus pattern]                                              |

|E                D/E|                     |
 You
(Who                are you,
|12-x-x--12--x--x--10|-x-12-----10-x-10----|
|12-x-x--12--x--x--10|-x-10--x--10-x-10--x-|
|13-x-xx-13--x--x--11|-x-11--x--11-x-11--x-|
|14----x-14--x--x--12|-x-12--x--12-x-12--x-|
|--------------------|---------------------|
|-----12--------12-12|-x-12-12--12-x-12--x-|


|A/E  E       A/E    E|                        |
                                      Who are
 who who,     who who)
|---------------------|-----15-15-15-15-15-15--|
|14---12----x-x--14---|--15-15-15-15-15-15-15--|
|14---12h13-x-x--14---|--14^14^14^14^14^14^14^-|
|14---12----x-x--14---|------------------------|
|---------------------|------------------------|
|12-x-12---12-12----12|12----------------------|


| E              D/E|                |
 You
(Who              are you,
|----12--12---------|----------------|
|----12--12--14---14|------14--------|
|14^-x--x--x-14-x-14|------14---14---|
|----x--x--x-14-x-14|------14---x----|
|-------------------|----------------|
|0-----12--12-----12|-12-12---12---12|


|A/E E         A/E  E      |                            |
                                Oh tell me who are
 who who, who who)
|--------------------------|----------------------------|
|14---12-------14---12-----|14---12-------14---12-------|
|14---12h13-x--14---12h13-x|14---12h13-x--14---12h13-14-|
|14---12----x--14---12----x|14---12----x--14---12-------|
|--------------------------|----------------------------|
|12-x-12---12--12-x-12---12|12-x-12---12--12-x-12------0|


|E         D/E|            |
 You
(Who         are you,
|0-----------2|-----2------|
|0-----------3|-----3------|
|------------2|-----2------|
|2-----------0|-----0------|
|2------------|--------0---|
|0----0----0-2|---------/5-|


[outro]
|A/E             |A/E              |C/G G              |                   |
                     I really wanna know...              Oh, I really wanna
(Who..............................)(Who..............................)
|----------------|-----------------|-------------------|-------------------|
|----------------|---------------0-|13--12-----13-13---|13-13-13-13--------|
|----------------|2-----2-----2--0-|12--12-----12-12-12|12-12-12-12-12-----|
|----2----2-2-2--|2-----2-----2--0-|14--12-----14----14|14-------14--------|
|0---0----0---0--|0-----0-----0----|-------------------|-----------------0-|
|--3---3--0-3----|-3^-0--3^-0--3^-0|--0---12-12--------|--------------12---|
|[acoustic]
|----------------|-----------------|-------------------|-------------------|
|10---9---10-9-10|-9-------10------|13--12-----13-12-13|12-------13--------|
|9----9---9--9-9-|-9-------9-------|12--12-----12-12-12|12-------12--------|
|11---9---11-9-11|-9-------11------|14--12-----14-12-14|12-------14--------|
|----------------|-----------------|-------15----------|-------------15-16-|
|----------------|-----------------|-------------------|-------------------|


|D/A                       |D/A                    |
 know                           C'mon tell me who are
(Who.............................................. )
|--------------------------|-----------------------|
|--15-14-14-15-14-14-15----|--15-14-15-14-15-14-15/|
|--14-14-14-14-14-14-14----|--14-14-14-14-14-14-14/|
|--16-14-14-16-14-14-16----|--16-14-16-14-16-14-16/|
|0-0--0--0--0--0--0--0--0--|0-0--0--0--0--0--0--0--|
|--------------------------|-----------------------|
|[acoustic]
|--------------------------|-----------------------|
|--15-------15-------15----|----15-----15----15----|
|--14----14-14-------14----|----14-----14----14----|
|--16----14-16-------16----|----16-----16----16----|
|-----0--0-----0--0--------|0-0----0-0---0-0----0--|
|--------------------------|-----------------------|


|A                 |A                   |E
 you      you       you          who are you
(ahh.............................        yeah)
|------------------|--------------------|-----|
|18****************|18**********--------|-----|
|17****************|17**********-x-x-0--|-----|
|19****************|19**********-x-x-x--|2----|
|------------------|-------------x-x---2|2----|
|------------------|-------------------0|0----|
|[acoustic]
|------------------|--------------------|0----|
|-15------15----15-|----15-----15----15-|0----|
|-14------14----14-|----14-----14----14-|1----|
|-16------16----16-|----16-----16----16-|2----|
|0----0-0---0-0----|0-0----0-0---0-0---0|2----|
|------------------|--------------------|0----|


=============
litgo@aol.com

#----------------------------------PLEASE NOTE---------------------------------#
#This file is the author's own work and represents their interpretation of the #
#song. You may only use this file for private study, scholarship, or research. #
#------------------------------------------------------------------------------#
Suggest correction
Creating personal tab
Creating personal tab
You can edit any tab online and save it as your Personal.

You can edit, replace or remove any tab part or add personal notes – all changes will be seen only by you.

Personal tabs can be accessed anytime from any device, even offline.
Learn more »
Give kudos to tab author, rate the tab!
1 2 3 4 5
comments
print report bad tab
guest
You may want to rate the tab now too:
select rating
Wanna post a correction for this tab? Suggest correction