Oops, an error
Loading. Please wait.

Wont Get Fooled Again bass

version 1
version 1

Whole song

by The Who
49,568 views 66 this week
6 commentsread comments
1 2 3 4 5
x 20
add to favorites
×
Save as Personal and add changes to this tab that will be seen only by you. Learn more ›
×
You can save this tab as Personal to edit and correct it or add notes. All changes will be seen only by you. Learn more »
launch autoscroll
font size
0
reset
guitar tuner
backing track
0:00
0:00
edit
Autoscroll
slow
fast
+/-
esc
set tempo
stop
Author
Difficulty
Artist: The Who
Song: Wont Get Fooled Again
(The song is kinda hard, you need to listen to it to get the feel for it)

(Rest Until 30 seconds then)
[Intro]
G|--------------------|--------------------|---------------|
D|--------------------|--------------------|---------------|
A|-0---/12--/12--12\--|-0---/12--/12--12\--|-0--0\-----12\-|
E|--------------------|--------------------|---------------|

[Verse 1]
G|------2--2-|---------------|---2-2-2--|------------------|
D|-----------|-0-1-2-0-------|----------|-------5----------|
A|-0-0-------|---------3-0---|-0--------|-5-6-7---7-6-5-3--|
E|-----------|-------------3-|----------|------------------|

G|---2-2-----|---------------|-------------0-|---------------|
D|-----------|-------5-------|-2-------2-0---|---------------|
A|-0---------|-5-6-7---5-6-6-|---0-2---------|-/12--5-5--12\-|
E|-----------|---------------|-------0-------|---------------|

G|-----2-2---|----------------|---2-2-2-|--------------------|
D|-----------|----------------|---------|-------5------------|
A|-0-0-------|-5-6-7--5-4-0-0-|-0-------|-5-6-7---7-5-6-3----|
E|-----------|----------------|---------|--------------------|

G|---2-2-----|----------------|-----------------|---------------|
D|-----------|-------5--------|-----------------|---------------|
A|-0---------|-5-6-7---5-7-7--|-7-7-5---7-7-5---|-/12--5-5--12\-|
E|-----------|----------------|-------7-------7-|---------------|

[Chorus]
G|-11-9---------|-11-9-----------|-11-9---------|-11-9-----------|
D|------11-9----|------11-9----0-|------11-9----|------11-9----0-|
A|-----------12-|-----------12---|-----------12-|-----------12---|
E|--------------|----------------|--------------|----------------|

G|-11-9---------|-11-9----------------|-0--0--0--|---------------|
D|------11-9----|------11-9-----------|--0--0--0-|---------------|
A|-----------12-|-----------12--9-7-5-|----------|-7-----7-5-----|
E|--------------|---------------------|----------|---7-5-----7-5-|

G|-0---0---0-2--|------------------|----------------|------------|
D|----0--0------|------------------|------------17\-|------------|
A|--------------|-7-5-----7-5------|-10--7--10------|-5--/17-----|
E|--------------|-----7-5-----7-5--|----------------|------------|

G|-------------------------|----------|--------------------------|
D|-12-10-------------------|-16\------|--/5----------------------|
A|-------12-10-----------5-|----------|------5--5/17-------------|
E|-------------10--8-7-5---|------3h5-|--------------3h5---------|

G|----------------|--------------|-----------------|------------------|
D|-5--------------|--------------|-----5-7-5-------|------------------|
A|-----5-5-3-3/15-|----------3-5-|-6-7-------7-6-5-|-3-----3-----3--3-|
E|----------------|-5--0-3-5-----|-----------------|---5-5---5-5---5-5|

G|---------5-------|
D|-5-7-5-----7-5---|
A|-------7-------7-|
E|-----------------|

[Verse 2]
G|------2---|---------------|-------2---|-------0-----0/12--|
D|----------|-0-1-2-0-------|-----------|-0-1-2----0--------|
A|-0--0---0-|---------3-0---|-0--0----0-|-------------------|
E|----------|-------------3-|-----------|-------------------|

G|------2---|-----------------|------2---|-------0-----|------------0/|
D|----------|-0-1-2-0---------|----------|-0-1-2---0-1-|-2-------2-0--|
A|-0--0---0-|---------3-0-----|-0--0---0-|-------------|---0-2--------|
E|----------|-------------3-4-|----------|-------------|-------0------|

G|-\12-------------0--|-------2---|-----------------|------2----------|
D|--------0-----------|-----------|-0-1-2-0---------|-----------------|
A|-----------19\------|--0--0---0-|---------3-0-----|-0--0----0-------|
E|-----15-------------|-----------|-------------3-4-|-----------------|

G|-------0-------0/12-|-------2---|-------0-----|-------------0/--|
D|-0-1-2-----0--------|-----------|-0-1-2---0-1-|-2------2-0------|
A|--------------------|--0--0---0-|-------------|---0-2-----------|
E|--------------------|-----------|-------------|-------0---------|

G|-\12---------------|
D|-------------------|
A|-----10------------|
E|--------10-10--10--|

[Chorus 2]
G|-11-9---------|-11-9-----------|-11-9---------|-11-9-----------|
D|------11-9----|------11-9----0-|------11-9----|------11-9----0-|
A|-----------12-|-----------12---|-----------12-|-----------12---|
E|--------------|----------------|--------------|----------------|

G|-11-9---------|-11-9----------------|-0--0--0--|---------------|
D|------11-9----|------11-9-----------|--0--0--0-|---------------|
A|-----------12-|-----------12--9-7-5-|----------|-7-----7-5-----|
E|--------------|---------------------|----------|---7-5-----7-5-|

G|-------------------------|----------|--------------------------|
D|-12-10-------------------|-16\------|--/5----------------------|
A|-------12-10-----------5-|----------|------5--5/17-------------|
E|-------------10--8-7-5---|------3h5-|--------------3h5---------|

G|----------------|--------------|-----------------|------------------|
D|-5--------------|--------------|-----5-7-5-------|------------------|
A|-----5-5-3-3/15-|----------3-5-|-6-7-------7-6-5-|-3-----3-----3--3-|
E|----------------|-5--0-3-5-----|-----------------|---5-5---5-5---5-5|

G|---------5-------|----------------|-----------------|---5-----------|
D|-5-7-5-----7-5---|---7------7---5-|---5-7-----7-----|-7---4-6-7-----|
A|-------7-------7-|----------------|-----------------|-----------5-7-|
E|-----------------|-5----5-5---5---|-5-----5-5---5-5-|---------------|

G|----------------|---5-7-----------|--------------|-------------5-7--|
D|---7-----7---5--|-7-------5-7-----|---7-------5--|---------5-7------|
A|----------------|-------5-----5-7-|-------5-7----|---5-6-7----------|
E|-5---5-5---5----|-----------------|-5---5--------|-5----------------|

G|-7h9-X-5-7--5-7-5-------------|-------------------|
D|------------------7-5-7--5-7--|-5-------5---------|
A|------------------------------|---7-5-7---5-3-0-0-|
E|------------------------------|-------------------|

[Bridge]
G|-------4-4-2---|------4-4-4-----|---------------|-------------0/12--|
D|-----4-------4-|----4-------1-4-|-2-------2-0---|-2-------2-0-------|
A|-2-------------|-2--------------|---0-2-------2-|---0-2-------------|
E|---------------|----------------|-------0-------|-------0-----------|

G|---------------|---------------2-|-----4-2------|-8-4-2-------------|
D|--------2---4--|-5---4---2-0-4---|--------------|-------4-3-2-0-----|
A|-0--4-0---0--0-|---0---0---------|-2--------4---|---------------2---|
E|---------------|-----------------|--------------|-------------------|

G|-----------4-2---|-----------4-2-|----------4-2--|-----------4-2-|
D|----4\---------4-|---4\----------|----4\---------|----4\---------|
A|-----------------|---------------|---------------|---------------|
E|-2-----0h2-------|-2-----0h2-----|-2-----0h2-----|-2-----0h2-----|

[Guitar Solo]
G|------------|-----------------|---4-----2----4-|-----------------|
D|------------|---02-3-2--0-----|----------------|-----3-2---2-0---|
A|-2--------0-|-2-----------2-0-|-2---0-2----2---|-0-2-----2-----0-|
E|-----2-2----|-----------------|----------------|-----------------|

G|-------46-4-2---|-----------------|-------------2---|
D|--------------4-|-3-2-0-----------|-0---2-0-4-2---4-|
A|-2---2----------|-------2-0---0-2-|---2-------------|
E|----------------|-----------2-----|-----------------|

G|-4-2---------------|----4----|-----------------|---4--2-2-4-7-4-2-|
D|-----4--3-2--0-----|---------|---------0-------|------------------|
A|---------------2-0-|-2-----2-|-----0-2---2-0-1-|-2----------------|
E|-------------------|---------|-0-2-------------|------------------|

G|-4-2-------------------------|----4--4-X-4-2-4-2-4-|-2--------------|
D|-----4--3-2-0--2-0---0----0--|---------------------|---4-3-2--0-----|
A|-------------------2---2-----|-2-------------------|------------2-0-|
E|-----------------------------|---------------------|----------------|

G|-----------------|-----------------|--------------------|-----------|
D|-----------0-2-0-|-3-2-0---0-2-----|-/12----5-----------|-/12-------|
A|-2-----0-2-------|-------2-----2-0-|-------------5------|-----------|
E|---0-2-----------|-----------------|------------------3-|-----------|

G|-----------------|----------------|----------0/12---|
D|--5--------------|--5-------------|--5--------------|
A|-------5---------|-------5--------|------5----------|
E|-----------3h5---|--------------5-|-----------------|

[Verse 3]
G|-------2\---|-----------------|-------2----|-------0---0/12--|
D|------------|-0-1-2-0---------|------------|-0-1-2---0-------|
A|-0--0-----0-|---------3-0-----|-0--0-----0-|-----------------|
E|------------|-------------3-4-|------------|-----------------|

G|-------2----|-------0-------|-------------0/12-|-----------0-|
D|------------|-0-1-2---0-1-0-|-2-------2-0------|----0-17\----|
A|-0--0-----0-|---------------|---0-2------------|-------------|
E|------------|---------------|-------0----------|-15----------|

G|------2----|---------------|---------2----|-------0-----0--|
D|-----------|-0-1-2-0-------|--------------|-0-1-2-----0----|
A|-0--0---0--|---------3-0---|--0---0----0--|----------------|
E|-----------|-------------3-|--------------|----------------|

G|--------/2----|-------0-------|-------------0\|/12-----------|
D|--------------|-0-1-2---0-1-0-|-2-------2-0---|--------------|
A|-0---0-----0--|---------------|---0-2---------|----10--------|
E|--------------|---------------|-------0-------|--------10-10-|

[Chorus 3]
G|-11-9---------|-11-9-----------|-11-9---------|-11-9----------|
D|------11-9----|------11-9----0-|------11-9----|------11-9---0-|
A|-----------12-|-----------12---|-----------12-|-----------12--|
E|--------------|----------------|--------------|---------------|

G|-11-9---------|-11-9---------------|-0---0--0----|---------------|
D|------11-9----|------11-9----------|----0-0---0--|---------------|
A|-----------12-|-----------12-9-7-5-|-------------|-7-----7-5-----|
E|--------------|--------------------|-------------|---7-5-----7-5-|

G|-0---0---0-2--|--------------------|---------------|--------|
D|----0--0------|--------------------|-----------17\-|--------|
A|--------------|-7-5-----7-5--------|-10--7-10------|-5--/17-|
E|--------------|-----7-5-----7-5----|---------------|--------|

G|-----------------------|------------|-------|----------------|
D|-12-10-----------------|-12/--------|-------|---\5-----------|
A|-------12-10---------5-|--------5-5-|-------|-------5-5-3/10-|
E|------------10-8-7-5---|------------|--5----|----------------|

G|--------------------|-----------------|-----------------|
D|-----------7--------|-----------------|-----5-7-5-------|
A|--------5----5---3--|-------------3-5-|-6-7-------7-6-5-|
E|-3h5----------------|--5----0-3-5-----|-----------------|

G|---------------------|------------5--------|
D|---------------------|----5-7-5-----7--5---|
A|-3-----3-----3---3---|----------7--------7-|
E|---5-5---5-5---5---5-|---------------------|

G|-----------------|-----------------|--------------------|
D|-----------------|-----5-7-5-------|--------------------|
A|-------------3-5-|-6-7-------7-6-5-|-3-----3-----3---3--|
E|--5----0-3-5-----|-----------------|---5-5---5-5---5--5-|

G|------------5---------|
D|----5-7-5------7--5---|
A|----------7---------7-|
E|----------------------|

G|-----------------|-----------------|--------------------|
D|-----------------|-----5-7-5-------|--------------------|
A|-------------3-5-|-6-7-------7-6-5-|-3-----3-----3---3--|
E|--5----0-3-5-----|-----------------|---5-5---5-5---5--5-|

G|------------5---------|
D|----5-7-5------7--5---|
A|----------7---------7-|
E|----------------------|

G|-----------------|-----------------|--------------------|
D|-----------------|-----5-7-5-------|--------------------|
A|-------------3-5-|-6-7-------7-6-5-|-3-----3-----3---3--|
E|--5----0-3-5-----|-----------------|---5-5---5-5---5--5-|

G|------------5-------|-------------------------|------------5-------|
D|----5-7-5-----7-5---|-------------------------|----5-7-5-----7-5---|
A|-12-------7-------7-|-12-12-12-12-12-12-12-12-|-12-------7-------7-|
E|--------------------|-------------------------|--------------------|

G|-------------------------|------------5-------|
D|-------------------------|----5-7-5-----7-5---|
A|-12-12-12-12-12-12-12-12-|-12-------7-------7-|
E|-------------------------|--------------------|

G|---------------|-----------------|---------------|-----------------|
D|---------------|-----5-7-5-------|---------------|-----5-7-5-------|
A|-----------3-5-|-6-7-------7-6-5-|-----------3-5-|-6-7-------6-7-5-|
E|-5---0-3-5-----|-----------------|-5---0-3-5-----|-----------------|

G|-------------------|------------5-------|---------------------------|
D|-------------------|----5-7-5-----7-5---|---------------------------|
A|-3----3----3---3---|-12-------7-------7-|-12(x32)-(four bars of 12)-|
E|---55---55---5---5-|--------------------|---------------------------|


[Interlude] - around 6½ minutes or so. The only bass in it is at the beginning its an open A 
&
(Outro at 7:45 play it like the intro, kinda. You’ll hear what to do)

The rest of the outro starts around 7:52
G|----------------|------------------|------------|------------------|
D|----------------|---5--------------|------------|---5--------------|
A|----------------|-------5-5-3-3/15-|------------|-------5-5-3-3/15-|
E|-------3h5------|------------------|-5----------|------------------|

G|------2--2--|---------------|---------2-2-2--|------------------|
D|------------|-0-1-2-0-------|----------------|-------5----------|
A|-0--0-------|---------3-0---|------0---------|-5-6-7---7-6-5-3--|
E|------------|-------------3-|----------------|------------------|

G|----------------|---------------|---------------------|
D|----------------|---------------|---------------------|
A|------------3-5-|---------------|-3-----3-----3---3---|
E|--5---0-3-5-----|--5---0-3-5--5-|---5-5---5-5---5---5-|

G|-----------5-------|----5-7------------|--------------|
D|--5-7-5------7-5---|--7--------5-7-----|---7-------5--|
A|--------7--------7-|---------5-----5-7-|-------5-7----|
E|-------------------|-------------------|-5---5--------|

G|--------------5-7-|-----------------|-------------5-7-|-------------|
D|---------5-7------|----57-----7-----|---------5-7-----|---7-------5-|
A|---5-6-7----------|-----------------|---5-6-7---------|-------5-7---|
E|-5----------------|--5----5-5---5-5-|-5---------------|-5---5-------|

G|-------------5-7-|---------------|
D|---------5-7-----|---57---57-----|
A|---5-6-7---------|---------------|
E|-5---------------|-5----5-----5--|

************************************

| /  Slide up
| \  Slide down
| h  Hammer-on

************************************

            
            
Suggest correction
Creating personal tab
Creating personal tab
You can edit any tab online and save it as your Personal.

You can edit, replace or remove any tab part or add personal notes – all changes will be seen only by you.

Personal tabs can be accessed anytime from any device, even offline.
Learn more »
comments
print report bad tab
6 comments total. Showing first comments.
0 reply
Bert_Hastings 179 Jul 07, 2007 04:38 AM

nice work.
5/5
I guess you were the one tabbed this out on the old bassmasta.net before it was shut down, because thats where I learned the song for the first time.

0 reply
Cmagg 10 Jul 07, 2007 06:47 AM

good work, i orignally saw this on thewho.net

0 reply
zeppelin42 60 Dec 01, 2007 05:01 PM

Thank you, I've been looking for this song everywhere!

guest
You may want to rate the tab now too:
select rating
Wanna post a correction for this tab? Suggest correction